Holly Williams, Let Her Go Tabs, Chords, Lyrics

Holly Williams, Let Her Go Tabs, Chords

 SITE MENU
 Request Tabs
 Add/Correct Tabs
 DMCA Policy
 Country Sheet Music
0

BROWSE LYRICS AND TABS BY ARTIST/BAND NAME: SEARCH HERE:
A B C D E F G H I J K L M N O P Q R S T U V W X Y Z #
 

Holly Williams - Let Her Go (Chords)


Holly Williams CD
Holly Williams Sheet music
Holly Williams Posters
DADGBE

  ___Intro_____
 |       |       |       |        |       |       |       |        
E|--------------------------------|--------------------------------|
B|--------------------------------|0h--1---------------1-----------|
G|--------------------------------|------------2-------------------|
D|----------------------------2---|--------2---------------2-------|
A|--------------------------------|0---------------0---------------|
D|--------------------------------|--------------------------------|
 
 |       |       |       |        |       |       |       |        
|------------3-------------------|--------------------------------|
|--------------------1-----------|0-------------------------------|
|--------------------------------|------------0---------------2---|
|--------2---------------2-------|--------0---------------0-------|
|3---------------3---------------|--------------------------------|
|--------------------------------|5---------------4---------------|
 
 |       |       |       |        |       |       |       |        
|--------------------------------|--------------------------------|
|----3---------------3-----------|--------------------1-----------|
|------------0-------------------|------------2-------------------|
|--------4-----------------------|--------2---------------2-------|
|--------------------------------|0---------------0---------------|
|0-------------------------------|--------------------------------|
 
 |       |       |       |        |       |       |       |        
|--------------------------------|------------3-------------------|
|--------------------1-----------|--------------------0-----------|
|------------0h--2---------------|--------------------------------|
|--------3---------------3-------|--------2---------------2-------|
|--------------------------------|3---------------3---------------|
|3---------------3---------------|--------------------------------|
 
 |       |       |       |         
|3-------------------------------| 
|1-------------------------------| 
|0-------------------------------| 
|2-------------------------------| 
|3-------------------------------| 
|--------------------------------| 
 

    _____1_____
   |       |       |       |        |       |       |       |        
||-------------3-------------------|----------------------------3----||
||---------------------1-----------|---------------------------------||
||*--------------------------------|------------------------0-------*||
||*--------3---------------3-------|--------2-------0h--2-----------*||
||---------------------------------|3--------------------------------||
||-3---------------3---------------|---------------------------------||
 -
 |       |       |       |        |       |       |       |        
|------------3-------------------|--------------------------------|
|--------------------1-----------|------------1---------------1---|
|--------------------------------|--------------------------------|
|--------3---------------3-------|--------2---------------2-------|
|--------------------------------|3---------------0---------------|
|3---------------3---------------|--------------------------------|
 
 |       |       |       |        |       |       |       |        
|--------------------------------|---------------------------------||
|--------------------3-----------|3-------------------3------------||Retour 1
|------------4-------------------|------------4-------------------*||
|--------5---------------5-------|--------5---------------5-------*||
|--------------------------------|---------------------------------||
|5---------------5---------------|5---------------5----------------||


  ___2_______
 | E      |       |       |        |       |       |       |        
||--------------------------------|--------------------------------|
||------------5-------------------|5-------------------------------|
||----------------------------4---|--------------------------------|
||--------6---------------6-------|--------6---------------6-------|
||--------------------------------|--------------------------------|
||6---------------6---------------|6---------------6---------------|
 
 |       |       |       |        |       |       |       |        
|--------------------------------|--------------------------------||
|5-----------------------5-------|--------------------------------||
|------------4-------------------|--------------------------------||
|--------6---------------6-------|--------6---------------6-------||
|--------------------------------|--------------------------------||
|6---------------6---------------|6---------------6---------------||


    ___3_______
   |       |       |       |        |       |       |       |        
||---------------------------------|--------------------------------|
||---------------------1-----------|--------------------1-----------|
||*------------2-------------------|------------0-------------------|
||*--------2---------------2-------|--------2---------------2-------|
||-0---------------0---------------|3---------------3---------------|
||---------------------------------|--------------------------------|
 
 |       |       |       |        |       |       |       |        
|--------------------------------|--------------------------------|
|--------------------3-----------|--------------------3-----------|
|------------4-------------------|------------2-------------------|
|--------5---------------5-------|--------0---------------0-------|
|--------------------------------|--------------------------------|
|5---------------5---------------|4---------------4---------------|
 
 |       |       |       |        |       |       |       |        
|--------------------------------|------------3-------------------||
|--------------------1-----------|--------------------1-----------||
|------------2-------------------|--------------------------------||
|--------2---------------2-------|--------3---------------3-------||
|0---------------0---------------|--------------------------------||
|--------------------------------|3---------------3---------------||
 
 |       |       |       |        |       |       |       |        
|--------------------------------|---------------------------------||
|--------------------1-----------|--------------------1------------||
|------------0-------------------|------------0-------------------*||
|--------2---------------2-------|--------2---------------2-------*||
|3---------------3---------------|3---------------3----------------||
|--------------------------------|---------------------------------||


  ___4_______
  |       |       |       |        |       |       |       |        
||--------------------------------|--------------------------------|
||------------3-------------------|------------3-------------------|
||--------------------4-----------|--------------------4-----------|
||--------5---------------5-------|--------5---------------5-------|
||--------------------------------|--------------------------------|
||5---------------5---------------|5---------------5---------------|
 
 |       |       |       |        |       |       |       |        
|------------1-------------------|------------1-------------------|
|--------------------1-----------|--------------------1-----------|
|--------------------------------|--------------------------------|
|--------3---------------3-------|--------3---------------3-------|
|--------------------------------|--------------------------------|
|3---------------3---------------|3---------------3---------------|

 |       |       |       |        
|------------1-------------------||
|--------------------1-----------||
|--------------------------------||
|--------3---------------3-------||
|--------------------------------||
|3---------------3---------------||



    ____5_______                      ___5-1_______
    |       |       |       |         |       |       |       |        
||----------------------------------||--------------------------------|
||---------------------1------------||----------------------------1---|
||*------------2---------------2---*||------------0-----------0-------|
||*--------2-----------------------*||--------2-------0h--2-----------|
||-0---------------0-------2--------||3-------------------------------|
||----------------------------------||--------------------------------|
 
 |       |       |       |        |       |       |       |        
|--------------------------------|---------------------------------||
|------------3-------------------|--------------------3------------||
|--------------------4-----------|------------2-------------------*||
|--------5---------------5-------|--------0---------------0-------*||
|--------------------------------|---------------------------------||
|5---------------5---------------|4---------------4----------------||


   ___5-2______ 
  |       |       |       |        |       |       |       |        
||------------1-------------------|--------------------------------||
||--------------------1-----------|------------3-------------------||
||--------------------------------|--------------------4-----------||
||--------3---------------3-------|--------5---------------5-------||
||--------------------------------|--------------------------------||
||3---------------3---------------|5---------------5---------------||
 
  ___6_______
 |       |       |       |        |       |       |       |        
||-------------1--------------------||----------------------------------||
||---------------------1------------||-------------3--------------------||
||*--------------------------------*||*--------------------4-----------*||
||*--------3---------------3-------*||*--------5---------------5-------*||
||----------------------------------||----------------------------------||
||-3---------------3----------------||-5---------------5----------------||
 

  ___7_______
 |       |       |       |        |       |       |       |        
||--------------------------------|------------1-------------------|
||----------------------------1---|--------------------1-----------|
||------------0-----------0-------|--------------------------------|
||--------2-------0h--2-----------|--------3---------------3-------|
||3-------------------------------|--------------------------------|
||--------------------------------|3---------------3---------------|
 
 |       |       |       |        |       |       |       |        
|--------------------------------|--------------------------------|
|------------3-------------------|------------3-------------------|
|--------------------4-----------|--------------------4-----------|
|--------5---------------5-------|--------5---------------5-------|
|--------------------------------|--------------------------------|
|5---------------5---------------|5---------------5---------------|
 
 |       |       |       |        |       |       |       |        
|------------1-------------------|--------------------------------|
|--------------------1-----------|------------3-------------------|
|--------------------------------|--------------------4-----------|
|--------3---------------3-------|--------5---------------5-------|
|--------------------------------|--------------------------------|
|3---------------3---------------|5---------------5---------------|
 
 |       |       |       |        |       |       |       |        
|--------------------------------|--------------------------------|
|--------------------------------|--------------------------------|
|------------0-----------0-------|------------2-------------------|
|--------2-----------0-----------|--------0---------------0-------|
|3---------------2---------------|--------------------------------|
|--------------------------------|0---------------0---------------|
 
 |       |       |       |        |       |       |       |        
|0-------------------------------|--------------------------------|
|------------3-------------------|--------------------------------|
|------------------------2-------|------------2-------------------|
|--------0---------------0-------|--------0---------------0-------|
|--------------------------------|--------------------------------|
|0---------------0---------------|0---------------0---------------|
 
 |       |       |       |        
|0-------------------------------|
|------------3-------------------|
|------------------------2-------|
|--------0---------------0-------|
|--------------------------------|
|0---------------0---------------|


 
Let Her Go - Holly Williams - Grille


|--- Intro  ------------------------------------------------------------|
|	|	|	|	|	|	|	|	|	|
|	|  Am	|   C	|   G	|  Bm7	|  Am	|   F	|   C	|  C	|
|	|	|	|	|	|	|	|	|	|

|---- 1 ----------------------------------------|
|	|	|	|    /	|	|	|
|:  F	|   C  :|  F	| C /Am	|   G	|  G	|  X2
|	|	|	|  /	|	|	|

|---- 2 ------------------------|
|	|	|	|	|
|  E	|  E	|  E	|  E	|
|	|	|	|	|

|---- 3 --------------------------------------------------------| 
|	|	|	|	|	|	|	|	|
|  Am	|  C	|   G  	|   D	|  Am	|   F	|   C	|  C    | 
|	|	|	|	|	|	|	|	|

|---- 3 ----------------------------------------|--- D ---------|
|	|	|	|	|	|	|	|	|
|  Am	|  C	|   G  	|   D	|  Am	|   F	|   G	|  G	|
|	|	|	|	|	|	|	|	|

|---- 4 ------------------------|
|	|	|	|	|
|  F	|  F	|  F	|  F	|
|	|	|	|	|

|--- 5 -|--- 5-1- --------------|--- 5--|--- 5-2 ---------------|
|	|	|	|	|	|	|	|	|
|  Am	|  C	|   G  	|   D	|  Am	|   F	|   C	|  C    | 
|	|	|	|	|	|	|	|	|

|---- 1 ----------------------------------------|
|	|	|	|    /	|	|	|
|: F	|   C  :|  F	| C /Am	|   G	|  G	| X2
|	|	|	|  /	|	|	|

|--- 4 -------------------------|
|	|	|	|	|
|  F	|  F	|  F	|  F	|
|	|	|	|	|

|--- 5 -|--- 5-1- --------------|--- 5--|--- 5-2 ---------------|
|	|	|	|	|	|	|	|	|
|  Am	|  C	|  G  	|  D	|  Am	|   F	|  C	|  C	|
|	|	|	|	|	|	|	|	|

|--- 5-2 ---------------------------------------|--- 4 ---------|
|	|	|	|	|	|	|	|	|
|  Am	|  C	|  G  	|  D	|  Am	|   F	|  G	|  G	|
|	|	|	|	|	|	|	|	|

|--- 6 -------------------------|
|	|	|	|	|
|  F	|  F	|  F	|  F	|
|	|	|	|	|

|--- 6 ---------|
|	|	|
|  G	|  G	| 
|	|	|

|--- 7 -------------------------|
|	|	|	|	|
|  C	|  F	|  G	|  G	|
|	|	|	|	|

|--- 7 ---------------------------------|
|    /	|	|	|	|	|
| C /C/B|  D	|  D	|  D	|  D	|
|  /	|	|	|	|	|

|--- 5 -|--- 5-1- --------------|--- 5--|--- 5-2 ---------------|
|	|	|	|	|	|	|	|	|
|  Am	|  C	|  G  	|  D	|  Am	|   F	|  C	|  C 	|  x2
|	|	|	|	|	|	|	|	|

|--- 5-2|---------------------------------------|--- 4 -|
|	|	|	|	|	|	|	|
|  Am	|  C	|  G  	|  D	|  Am	|   F	|  G	| 
|	|	|	|	|	|	|	|

|--- 5 -|--- 5-1- --------------|--- 5--|--- 6 ---------|
|	|	|	|	|	|	|	|
|  Am	|  C	|  G  	|  D	|  Am	|   F	|  F	|
|	|	|	|	|	|	|	|



Am	: x02210
F	: 3x3211	
G	: 5x5433
D	: 0x0230
Bm7	: 0x4030
C	: x32010
C/B	: x20010
E	: 6x6450


Williams Holly Tabs & ChordsWilliams Holly Lyrics



Williams Holly Tabs, Tablatures, Chords, Lyrics

Buy Williams Holly CD
Williams Holly
Buy Williams Holly CD

  1. Williams Holly - A Good Man Chords
  2. Williams Holly - All As I Should Be Tabs
  3. Williams Holly - As It Should Be Chords
  4. Williams Holly - Between Your Lines Chords
  5. Williams Holly - Drinkin' Chords
  6. Williams Holly - Everybodys Waiting For A Change Chords
  7. Williams Holly - Keep The Change Chords
  8. Williams Holly - Let Her Go Chords
  9. Williams Holly - Railroads Chords
  10. Williams Holly - Rodeo Road Chords
  11. Williams Holly - Sometimes Chords
  12. Williams Holly - Sometimes Tabs
  13. Williams Holly - The Highway Chords
  14. Williams Holly - Three Days In Bed Chords
  15. Williams Holly - Til It Runs Dry Chords
  16. Williams Holly - Velvet Sounds Chords
  17. Williams Holly - Without Jesus Here With Me Chords
  18. Williams Holly - Without You Chords



cowboylyrics.com
All lyrics are property and copyright of their owners. All lyrics provided for educational purposes only.