Holly Williams, Sometimes Tabs, Chords, Lyrics

Holly Williams, Sometimes Tabs, Chords

 SITE MENU
 Request Tabs
 Add/Correct Tabs
 DMCA Policy
 Country Sheet Music
0

BROWSE LYRICS AND TABS BY ARTIST/BAND NAME: SEARCH HERE:
A B C D E F G H I J K L M N O P Q R S T U V W X Y Z #
 

Holly Williams - Sometimes (Tabs)


Holly Williams CD
Holly Williams Sheet music
Holly Williams Posters
CAPO III

INTRO

 Em7                              D7
 |       |       |       |        |       |       |       |        
|--------------------------------|--------------------------------|
|--------------------3-----------|--------------------3-----------|
|----------------------------0---|----------------------------0---|
|--------2---------------0-------|--------0---------------0-------|
|--------------------------------|--------------------------------|
|0-------------------------------|2-------------------------------|
 
 G                                C               C/B
 |       |       |       |        |       |       |       |        
|--------------------------------|--------------------------------|
|--------------------3-----------|--------------------------------|
|----------------------------0---|------------0---------------0---|
|--------0---------------0-------|--------2---------------0-------|
|--------------------------------|3---------------2---------------|
|3-------------------------------|--------------------------------|
 
 C                                D7
 |       |       |       |        |       |       |       |        
|--------------------------------|--------------------------------|
|--------------------3-----------|--------------------3-----------|
|----------------------------0---|----------------------------0---|
|--------2---------------0-------|--------0---------------0-------|
|3-------------------------------|--------------------------------|
|--------------------------------|2-------------------------------|
 
 G                                G
 |       |       |       |        |       |       |       |        
|--------------------------------|--------------------------------|
|--------------------3-----------|--------------------3-----------|
|----------------------------0---|----------------------------0---|
|--------0---------------0-------|--------0---------------0-------|
|--------------------------------|--------------------------------|
|3-------------------------------|3-------------------------------|
 

 	 INTRO
 	 Em D7 G C C/B C D7 G
 	 Em D7 G C C/B C D7 G
 	 Em D7 G C C/B C D7 G
 	 Em D7 G C C/B C D7 G

 	 D C G D7 D C G D7 D7

 	 Em D7 G C C/B C D7 G
 	 Em D7 G C C/B C D7 G

 	 D C G D7 D C G D7 D7

 	 Em D7 G C C/B C D7 G
 	 Em D7 G C C/B C D7 G
 	 Em D7 G C C/B C D7 G
 	 Em D7 G 


Williams Holly Tabs & ChordsWilliams Holly Lyrics



Williams Holly Tabs, Tablatures, Chords, Lyrics

Buy Williams Holly CD
Williams Holly
Buy Williams Holly CD

  1. Williams Holly - A Good Man Chords
  2. Williams Holly - All As I Should Be Tabs
  3. Williams Holly - As It Should Be Chords
  4. Williams Holly - Between Your Lines Chords
  5. Williams Holly - Drinkin' Chords
  6. Williams Holly - Everybodys Waiting For A Change Chords
  7. Williams Holly - Keep The Change Chords
  8. Williams Holly - Let Her Go Chords
  9. Williams Holly - Railroads Chords
  10. Williams Holly - Rodeo Road Chords
  11. Williams Holly - Sometimes Chords
  12. Williams Holly - Sometimes Tabs
  13. Williams Holly - The Highway Chords
  14. Williams Holly - Three Days In Bed Chords
  15. Williams Holly - Til It Runs Dry Chords
  16. Williams Holly - Velvet Sounds Chords
  17. Williams Holly - Without Jesus Here With Me Chords
  18. Williams Holly - Without You Chords



cowboylyrics.com
All lyrics are property and copyright of their owners. All lyrics provided for educational purposes only.