Cowboy Lyrics and Chords Country Lyrics, Chords and Tabs Source #1 - CowboyLyrics.com
 MENU
  Request Lyrics
  Add/Correct Lyrics
  Links Page
  Contact Us
  Privacy Policy
  DMCA Policy
 MERCHANDISE
  Country CDs
  Country Sheet Music


BROWSE LYRICS AND TABS BY ARTIST/BAND NAME: SEARCH:
A B C D E F G H I J K L M N O P Q R S T U V W X Y Z #
 

I Dont Trust My Memories Anymore chords - Jinks Cody

Click to play this song!
Jinks Cody Sheet music
INTRO:
NONE
 
VERSE:
         E             A
I could conjure up so many times
          B                  E
From the good old days when she was mine
 
   E   B       E
E ---------------|
B -------------4-|
G -----------4---|
D ---------4-----|
A -0-1-2-2-------|
E ---------------|
 
         E                A
I could reminisce on the crazy nights
        B                     E
When I held her close, but I always cry
 
   E   B       E
E ---------------|
B -------------4-|
G -----------4---|
D ---------4-----|
A -0-1-2-2-------|
E ---------------|
 
 
CHORUS:
   E                             A
No I don’t trust my memories anymore
      B                                     E
They ain’t the friends I thought they were before
 
   E   B       E
E ---------------|
B -------------4-|
G -----------4---|
D ---------4-----|
A -0-1-2-2-------|
E ---------------|
 
      E
They used to be so fond
        A                   Bbm
Now my faith in them is gone
    B                             E
And I don’t trust my memories anymore
 
   E   B       E
E ---------------|
B -------------4-|
G -----------4---|
D ---------4-----|
A -0-1-2-2-------|
E ---------------|
 
 
VERSE:
       E                    A
Got a thousand scars all across my back
      B                  E            B
This wounded heart just can’t get past
 
   E   B       E
E ---------------|
B -------------4-|
G -----------4---|
D ---------4-----|
A -0-1-2-2-------|
E ---------------|
 
        E                A
When I see you now in a perfect dream
   B                     E
I wake myself before it turns on me
 
   E   B       E
E ---------------|
B -------------4-|
G -----------4---|
D ---------4-----|
A -0-1-2-2-------|
E ---------------|
 
 
CHORUS:
   E                             A
No I don’t trust my memories anymore
      B                                     E    B
They ain’t the friends I thought they were before
 
   E   B       E
E ---------------|
B -------------4-|
G -----------4---|
D ---------4-----|
A -0-1-2-2-------|
E ---------------|
 
      E
They used to be so fond
        A                   Bbm
Now my faith in them is gone
    B                             E  B
And I don’t trust my memories anymore
 
   E   B       E
E ---------------|
B -------------4-|
G -----------4---|
D ---------4-----|
A -0-1-2-2-------|
E ---------------|
 
 
INSTRUMENTAL/SOLO:
E  A  B  E B
E  A  Bb B  E
 
   E   B       E
E ---------------|
B -------------4-|
G -----------4---|
D ---------4-----|
A -0-1-2-2-------|
E ---------------|
 
 
CHORUS:
   E                             A
No I don’t trust my memories anymore
      B                                     E
They ain’t the friends I thought they were before
 
   E   B       E
E ---------------|
B -------------4-|
G -----------4---|
D ---------4-----|
A -0-1-2-2-------|
E ---------------|
 
      E
They used to be so fond
        A                   Bbm
Now my faith in them is gone
   B                             E
No I don’t trust my memories anymore
 
   E   B       E
E ---------------|
B -------------4-|
G -----------4---|
D ---------4-----|
A -0-1-2-2-------|
E ---------------|
 
 
OUTRO:
      E
They used to be so fond
        A                   Bbm
Now my faith in them is gone
    B                             E  B E
And I don’t trust my memories anymore
            



Jinks Cody ChordsJinks Cody Lyrics



Cody Jinks Tabs, Tablatures, Chords, Lyrics

Buy Cody Jinks CD
Cody Jinks

  1. Cody Jinks - All It Cost Me Was Everything Chords
  2. Cody Jinks - Hurt You Chords
  3. Cody Jinks - I Dont Trust My Memories Anymore Chords
  4. Cody Jinks - Mercy Chords
  5. Cody Jinks - Nobody Knows How To Read Chords
  6. Cody Jinks - Shoulders Chords



© 2019 cowboylyrics.com
All lyrics are property and copyright of their owners. All lyrics provided for educational purposes only.