Cowboy Lyrics and Chords Country Lyrics, Chords and Tabs Source #1 - CowboyLyrics.com
 SITE MENU
  Request Lyrics
  Add/Correct Lyrics
  Links Page
  Contact Us
  Privacy Policy
  DMCA Policy
 MERCHANDISE
  Country CDs
  Country Sheet Music




Partners ToneMedia



Since 20.01.2002
BROWSE LYRICS AND TABS BY ARTIST/BAND NAME: SEARCH HERE:
A B C D E F G H I J K L M N O P Q R S T U V W X Y Z #
 

Lil Jack Slade (chris Thile Mandolin Solo) tabs - Dixie Chicks

Click to play this song!
Dixie Chicks CD
Dixie Chicks Sheet music
Dixie Chicks Posters
                Lil' Jack Slade (Chris Thile Mandolin Solo)

E ------------------|-----------------|-----------------|-3-------3-------
A ------------2-----|-------3---------|---5-------5-6-7-|---7-5-7---6-5-3-
D ----------2-------|-----3-----------|-5-------6-------|-----------------
G ----2-4-5---------|-4-5---------4-5-|-----------------|-----------------

E ------------------|------------------------------|-----------------
A ---5------5-5-----|-5-5-----5-5-----5-5---5b---5-|-3-0-----0-------
D -5------7-----5-7-|-----5-7-----5-7--------------|-----5-2---5-0-1-
G ------------------|------------------------------|-----------------

E ---------------------|-----------------------0-|-2-3-5-7-8-10-12------
A ---------------------|---------0-2-3-0-2-3-5---|----------------------
D -0-------------0-2-4-|-5-2-4-5-----------------|----------------------
G ---5-4-3-2-4-5-------|-------------------------|----------------------
           |-3-| |-3-|   |-3-| |-3-| |-3-| |-3-|   |-3-| |-3-|

E -11-10-8----10-10-8---|-8/10/12-15----15-10----|---12----12-------10-|---10------8---------
A ---------12-----------|------------------------|------------7--------|------12--------10---
D ----------------------|------------------------|---------------------|---------------------
G ----------------------|------------------------|---------------------|---------------------

E -7-------------------|-----------------------
A ------7----10-7-6----|-----------------------
D ------------------12-|-10-7-5----------------
G ---------------------|--------8-7-5-2--------
            



Dixie Chicks ChordsDixie Chicks Lyrics



Dixie Chicks Tabs, Tablatures, Chords, Lyrics

Buy Dixie Chicks CD
Dixie Chicks
Buy Dixie Chicks CD

  1. Dixie Chicks - A Home (corrected) Chords
  2. Dixie Chicks - Easy Silence Chords
  3. Dixie Chicks - Favorite Year Chords
  4. Dixie Chicks - Give It Up or Let Me Go Chords
  5. Dixie Chicks - Godspeed (3) Chords
  6. Dixie Chicks - I Hope Chords
  7. Dixie Chicks - Lil Jack Slade (chris Thile Mandolin Solo) Tabs
  8. Dixie Chicks - Love Me Like A Man (live) Chords
  9. Dixie Chicks - Lullaby Chords
  10. Dixie Chicks - Not Ready To Make Nice Chords
  11. Dixie Chicks - Once You've Loved Somebody Chords
  12. Dixie Chicks - Silent House Chords
  13. Dixie Chicks - Some Days You Gotta Dance Chords
  14. Dixie Chicks - Strong Enough To Be My Man Tabs
  15. Dixie Chicks - Truth #2 Chords
  16. Dixie Chicks - Walk Softly On This Heart Of Mine Chords
  17. Dixie Chicks - White Trash Wedding Chords
  18. Dixie Chicks - You Can't Hurry Love Chords



© 2016 cowboylyrics.com
All lyrics are property and copyright of their owners. All lyrics provided for educational purposes only.