Cowboy Lyrics and Chords Country Lyrics, Chords and Tabs Source #1 - CowboyLyrics.com
 MENU
  Request Lyrics
  Add/Correct Lyrics
  Links Page
  Contact Us
  Privacy Policy
  DMCA Policy
 MERCHANDISE
  Country CDs
  Country Sheet Music


BROWSE LYRICS AND TABS BY ARTIST/BAND NAME: SEARCH:
A B C D E F G H I J K L M N O P Q R S T U V W X Y Z #
 

Tilt Your Chair Back chords - Cavalry Flatland

Click to play this song!
Cavalry Flatland Sheet music
[Intro]
E E7 A A C#m F#m B
 
 
[Verse]
E
Tilt your chair back
                                   E7
Look up at the trees, let your hair down
A
Listen to the breeze, breathe this moment
E              C#m
Down into your knees
F#m                          B
Let your worries for tomorrow fall amongst the leaves
 
E
With your best loved mug
                      B            E7
Full of quittin' time tea, sip the present
             A
Gift-wrapped from eternity
Lay a treasure
E              C#m
Deep into your mind
 F#m                               B
To dust off on a grey day when you need a ray of shine
 
[Chorus]
 
A                                 E
When your weary shoulders start to slouchin'
A                                          E
From holding all that weight that you can't see
A                                E
When there ain't a steady foot to stand on
    B
And you're too quick to thinkin' on your feet
         A
When your smile fades
         E
When your heart lacks
          F#m           B(hold)
Toss your care down
          E
Tilt your chair back
 
 
[Verse]
E
There's a time for working
B                                  E7
Time to get away, there's time for bailin'
         A
Time for rollin' in the hay
E
Time for stealing
                            C#m
A little time back from the sun
F#m                   B7
Borrow from tomorrow 'fore tomorrow has begun
 
[Chorus]
 
A                                  E
When your weary shoulders start to slouchin'
A                                           E
From holding all that weight that you can't see
A                                 E
When there ain't a steady foot to stand on
    B
And you're too quick to thinkin' on your feet
         A
When your smile fades
          E
When your heart lacks
          F#m           B(hold)
Toss your care down
    E
Tilt your chair back
 
[Solo]
E|---------------------------------------------|
B|---------------------------------------------|
G|1h2/4-4-4--1h2-2/4-4/6-4--1h2-2/4-4-4-4/6-4--|
D|---------------------------------------------|
A|---------------------------------------------|
E|---------------------------------------------|
 
E|------------------------------------------|
B|------------------------------------------|
G|2/4-2-2---2/4-2--4-2---2/4-2--2-1---1h2-1-|
D|--------2------------2------------2-------|
A|------------------------------------------|
E|------------------------------------------|
 
E|-------4-4\2-0-------2-4-5-7-9------|
B|-0-2-5---------2/5-0---------10-----|
G|------------------------------------|
D|------------------------------------|
A|------------------------------------|
E|------------------------------------|
 
A                                  E
And when the joy you found becomes ungrounded
A                                     E
And all the sound around you can't be hushed
A                                   E
When you find you're sittin' in the darkness
B
And darkness feels like all there ever was
A
When your smile fades
          E
When your heart lacks
          F#m         B
Toss your cares down
     E
Tilt your chair back
 
[Outro]
E7 A A C#m F#m B E
 
 
E|---------------------------------------------|
B|---------------------------------------------|
G|1h2/4-4-4--1h2-2/4-4/6-4--1h2-2/4-4-4-4/6-4--|
D|---------------------------------------------|
A|---------------------------------------------|
E|---------------------------------------------|
 
E|------------------------------------------|
B|------------------------------------------|
G|2/4-2-2---2/4-2--4-2---2/4-2--2-1---1h2-1-|
D|--------2------------2------------2-------|
A|------------------------------------------|
E|------------------------------------------|
 
E|-------2 2p0---------2-0 -----------|
B|-0-2-5-------5-5-4-5----------------|
G|------------------------------------|
D|------------------------------------|
A|------------------------------------|
E|------------------------------------|
            



Cavalry Flatland ChordsCavalry Flatland Lyrics



Flatland Cavalry Tabs, Tablatures, Chords, Lyrics

Buy Flatland Cavalry CD
Flatland Cavalry

  1. Flatland Cavalry - A Cowboy Knows How Chords
  2. Flatland Cavalry - Country Is... Chords
  3. Flatland Cavalry - Fallen Star Chords
  4. Flatland Cavalry - Meantime Chords
  5. Flatland Cavalry - Off Broadway Chords
  6. Flatland Cavalry - Some Things Never Change Chords
  7. Flatland Cavalry - Tilt Your Chair Back Chords



© 2019 cowboylyrics.com
All lyrics are property and copyright of their owners. All lyrics provided for educational purposes only.