Country Lyrics and Tabs Source #1 -
  Request Lyrics
  Add/Correct Lyrics
  Links Page
  Contact Us
  Privacy Policy
  DMCA Policy
  Country CDs
  Country Sheet Music

Partners ToneMedia

Since 20.01.2002
A B C D E F G H I J K L M N O P Q R S T U V W X Y Z #

I Don't Have A Clue tabs - Jedd Hughes

Click to play this song!
Jedd Hughes CD
Jedd Hughes Sheet music
Jedd Hughes Posters
                Artist: Jedd Hughes 

Here's the main riff for the song, it's pretty simple and works off the Gmajor 
pentatonic/ Eminor Pentatonic scale! :)

E -----------0-h-2---------------
A --2--2------------2--2---------
D -------------------------------
G -------------------------------
B -------------------------------
E -------------------------------

This repeats through untill the chord change, it then goes to:

E ---------------------------
A ------------2--0-----------
D --2--2--0------------------
G ---------------------------
B ---------------------------
E ---------------------------

About 2 times, then back to the main riff again! :) have fun!

Jedd Hughes ChordsJedd Hughes Lyrics

Hughes Jedd Tabs, Tablatures, Chords, Lyrics

Buy Hughes Jedd CD
Hughes Jedd
Buy Hughes Jedd CD

  1. Hughes Jedd - I Don't Have A Clue Tabs
  2. Hughes Jedd - I Wish You Were Here Chords
  3. Hughes Jedd - Soldier For The Lonely Chords

© 2016
All lyrics are property and copyright of their owners. All lyrics provided for educational purposes only.