Cowboy Lyrics and Chords Country Lyrics, Chords and Tabs Source #1 - CowboyLyrics.com
 MENU
  Request Lyrics
  Add/Correct Lyrics
  Links Page
  Contact Us
  Privacy Policy
  DMCA Policy
 MERCHANDISE
  Country CDs
  Country Sheet Music


BROWSE LYRICS AND TABS BY ARTIST/BAND NAME: SEARCH:
A B C D E F G H I J K L M N O P Q R S T U V W X Y Z #
 

No Place Like You chords - Williams Joy

Click to play this song!
Williams Joy Sheet music
[Intro]
   G                       G                       G                       G
e|-----------------------|-----------------------|-----------------------|-----------------------|
B|-------------3---------|-------------3---------|-------------3---------|--------------3--------|
G|---------0-------0-----|---------0-------0-----|---------0-------0-----|---------0-------0-----|
D|-----0---------------0-|-----0---------------0-|-----0---------------0-|-----0---------------0-|
A|-----------------------|-----------------------|-----------------------|-----------------------|
E|-3---------------------|-3---------------------|-3---------------------|-3---------------------|


[Verse 1]
   G                       B7                      C                       Cm
e|-----------------------|-----------------------|-----------------------|------------------------|
B|-------------3---------|-------------0---------|-------------1---------|-------------4----------|
G|---------0-------0-----|---------2-------2-----|---------0-------0-----|---------5-------5------|
D|-----0---------------0-|-----1---------------1-|-----2---------------2-|-----5---------------5--|
A|-----------------------|-2---------------------|-3---------------------|/3----------------------|
E|-3---------------------|-----------------------|-----------------------|-----------------------5|
 
   G                       B7                      C                       Cm
e|-----------------------|-----------------------|-----------------------|-----------------------|
B|-------------0---------|-------------0---------|-------------1---------|-------------4---------|
G|---------0-------0-----|---------2-------2-----|---------0-------0-----|---------5-------5-----|
D|-----0---------------0-|-----1---------------1-|-----2---------------2-|-----5---------------5-|
A|-----------------------|-2---------------------|-3---------------------|/3---------------------|
E|-3---------------------|-----------------------|-----------------------|-----------------------|

   G                       B7                      Em                      A7
e|-----------------------|-------------2---------|-----------------------|-----------------------|
B|-------------0---------|-----------------0-----|-------------0---------|-------------2---------|
G|---------0-------0-----|---------2-----------2-|---------0-------0-----|---------0-------0-----|
D|-----0---------------0-|-----1-----------------|-----2---------------2-|-----2---------------2-|
A|-----------------------|-2---------------------|-----------------------|-0---------------------|
E|-3---------------------|-----------------------|-0---------------------|-----------------------|


[Chorus 1]
   G                       B7                      Em          D           Cadd9
e|-----------------------|-------------2---------|-----------------------|-------------0---------|
B|-------------0---------|-----------------0-----|---------------------3-|-----------------3-----|
G|---------0-------------|---------2-----------2-|-----------------2-----|---------0-----------0-|
D|-----0-----------------|-----1-----------------|---------2---0---------|-----2-----------------|
A|-----------------0---1-|-2---------------------|-----2-----------------|-3---------------------|
E|-3---------------------|-----------------------|-0---------------------|-----------------------|

   G                       D7                      C               G/B Am7 G           D7
e|-------------3---------|-------------2---------|-------------0---------|-----------------------|
B|-------------3---------|---------1-------1-----|-------------1---3---1-|-0-------------------1-|
G|---------0-------------|-----2---------------2-|---------0---0---0---0-|-0---0---0-------2-----|
D|-----0-----------------|-0---------------------|-----2-------2---------|-----0-------0---------|
A|-----------------2---3-|-----------------------|-3-----------3---2---0-|-----------------------|
E|-3---------------------|-----------------------|-----------------------|-3---------------------|


[Verse 2]
   G                       B7                      C                       Cm
e|-------------3---------|-------------2---------|-----------------------|-------------3----------|
B|-------------0---------|-----------------0-----|-------------1---------|-----------------4------|
G|---------0-------------|---------2-----------2-|---------0-------0-----|---------5-----------5--|
D|-----0-----------------|-----1-----------------|-----2---------------2-|-----5-----------------0|
A|-----------------0---1-|-2---------------------|-3---------------------|/3----------------------|
E|-3---------------------|-----------------------|-----------------------|------------------------|

   G                       B7                      C                       Cm
e|-----------------------|-----------------------|-----------------------|-------------3---------|
B|-------------0---------|-------------0---------|-------------1---------|-----------------4-----|
G|---------0-------------|---------2-------2-----|---------0-------0-----|---------5-----------5-|
D|-----0-----------------|-----1---------------1-|-----2---------------2-|-----5-----------------|
A|-----------------0---1-|-2---------------------|-3---------------------|/3---------------------|
E|-3---------------------|-----------------------|-----------------------|-----------------------|
   
   G                       B7                      Em                      A7
e|-----------------------|-------------2---------|-----------------------|-----------------------|
B|-------------0---------|-----------------0-----|-------------0---------|-------------2---------|
G|---------0-------------|---------2-----------2-|---------0-------0-----|---------0-------0-----|
D|-----0-----------------|-----1-----------------|-----2---------------2-|-----2---------------2-|
A|-----------------0---1-|-2---------------------|-----------------------|-0---------------------|
E|-3---------------------|-----------------------|-0---------------------|-----------------------|


[Chorus 2]
   G                       B7                      Em          D           Cadd9
e|-----------------------|-------------2---------|-----------------------|-------------3---------|
B|-------------0---------|-----------------0-----|---------------------3-|-----------------3-----|
G|---------0-------------|---------2-----------2-|-----------------2-----|---------0-----------0-|
D|-----0-----------------|-----1-----------------|---------2---0---------|-----2-----------------|
A|-----------------0---1-|-2---------------------|-----2-----------------|-3---------------------|
E|-3---------------------|-----------------------|-0---------------------|-----------------------|

   G                       D                       C               G/B Am7 G           B7
e|-------------3---------|-------------2---------|-------------0---------|-----------------------|
B|-------------3---------|---------3-------3-----|-------------1---3---1-|-0---------------------|
G|---------0-------------|-----2---------------2-|---------0---0---0---0-|-0-------0-----------2-|
D|-----0-----------------|-0---------------------0-----2-----------------|-----0-----------1-----|
A|-----------------2---3-|-----------------------|-3-----------3---2---0-|-------------2---------|
E|-3---------------------|-----------------------|-----------------------|-3---------------------|


[Bridge]
   Em                      Bm                      C                       D           Cadd9
e|-------------0---------|-------------2---------|-----------------------|-2-----------0---------|
B|-0---------------0-----|-----------------3-----|-------------1---------|-3---3-------3---------|
G|-0-------------------0-|---------4-----------4-|---------0---0---0-----|-2-------2---0---------|
D|-2---------------------2-----4-----------------0-----2---------------2-|-0---------------------|
A|-2---------------------|-2---------------------|-3---------------------|-------------3---------|
E|-0---------------------|-----------------------|-----------------------|-----------------------|

   G/B         Am7
e|-----------------------|
B|-3-----------1---------|
G|-0-----------0-------0-|
D|-----0-----------2-----|
A|-2-------2---0---------|
E|-----------------------|


[Chorus 3]
   G                       B7                      Em          D           Cadd9
e|-------------3---------|-------------2---------|-----------------------|-------------0---------|
B|-------------0---------|-----------------0-----|---------------------3-|-----------------3-----|
G|---------0-------------|---------2-----------2-|-----------------2-----|---------0-----------0-|
D|-----0-----------------|-----1-----------------|---------2---0---------|-----2-----------------|
A|-----------------0---1-|-2---------------------|-----2-----------------|-3---------------------|
E|-3---------------------|-----------------------|-0---------------------|-----------------------|

   G                       D                       C               G/B Am7 G           D7
e|-----------------------|------------0h2--------|-------------0---------|------------------------|
B|-------------3---------|---------3-------3-----|-------------1---3---1-|-0-------------------1--|
G|---------0-------------|-----2---------------2-|---------0---0---0---0-|-0-------0-------2-----2|
D|-----0-----------------|-0---------------------|-----2-----------------|-----0-------0----------|
A|-----------------2---3-|-----------------------|-3-----------3---2---0-|------------------------|
E|-3---------------------|-----------------------|-----------------------|-3----------------------|


[Outro]
   G                       B7                      Em          D           Cadd9
e|-------------3---------|-----------------------|-----------------------|-------------3---------|
B|-------------3---------|-----7-----------------|---------------------3-|-----------------3-----|
G|---------0-------------|-----8-----------------|-----------------2-----|---------0-----------0-|
D|-----0-----------------|-----7-----------------|---------2---0---------|-----2-----------------|
A|-----------------0---1-|-2/6-------------------|-----2-----------------|-3---------------------|
E|-3---------------------|-----------------------|-0---------------------|-----------------------|

   G                         D                                               
e|-------------3---------|-------------3--p2-----|-----------------------|-----------------------|
B|-------------3---------|----------3------------|-----------------------|-----------------------|
G|---------0-------------|-------2---------------|-----------------------|-----------------------|
D|-----0---------------0-|---0-------------------|-----------------------|-----------------------|
A|-----------------2/3---|-----------------------|-----------------------|-----------------------|
E|-3---------------------|-----------------------|-----------------------|-----------------------|
 
                             C     G/B   Am7       G
E|-----------------------|---0-------------------|-----------------------|-----------------------|
B|-----------------------|---1-----3-----1-------|-0---------------------|-----------------------|
G|-----------------------|---------0-----0-------|-0---------------------|-----------------------|
D|-----------------------|-----------------------|-0---------------------|-----------------------|
A|-----------------------|---3-----2-----0-------|-2---------------------|-----------------------|
E|-----------------------|-----------------------|-3---------------------|-----------------------|
             



Williams Joy ChordsWilliams Joy Lyrics



Joy Williams Tabs, Tablatures, Chords, Lyrics

Buy Joy Williams CD
Joy Williams

  1. Joy Williams - Front Porch Chords
  2. Joy Williams - No Place Like You Chords
  3. Joy Williams - No Place Like You Chords
  4. Joy Williams - One And Only Chords
  5. Joy Williams - The Trouble With Wanting Chords



© 2019 cowboylyrics.com
All lyrics are property and copyright of their owners. All lyrics provided for educational purposes only.