Albert Lee, Bullish Boogie (part I) Tabs, Chords, Lyrics

Albert Lee, Bullish Boogie (part I) Tabs, Chords

 SITE MENU
 Request Tabs
 Add/Correct Tabs
 DMCA Policy
 Country Sheet Music
0

BROWSE LYRICS AND TABS BY ARTIST/BAND NAME: SEARCH HERE:
A B C D E F G H I J K L M N O P Q R S T U V W X Y Z #
 

Albert Lee - Bullish Boogie (part I) (Tabs)


Albert Lee CD
Albert Lee Sheet music
Albert Lee Posters
Albert Lee:Bullish Boogie (Part I)


This will take you up to the piano solo.

Will finish off in Part II



Main Melody

E-----------------------------------------------------------
B-----5-----5-----5-----5-----------4-----4-----4p3---1-----
G-0---5-0---5-0---5-0---5---0-------5-0---5-0---5p3---1h2---
D---8-----8-----8-----8---8---5/7\6-----7-----7-----3-----3-
A-----------------------------------------------------------
E-----------------------------------------------------------


E-----------------------------------------------------------
B---------5-----5-----5-----5-6-6---------------------------
G---------5-0---5-0---5-0---5-5-5h7p5-3-------------------3-
D-0-----------8-----8-----8-------------6b(7)\5-3-----3-----
A---3-3/7-----------------------------------------5-3---5---
E-----------------------------------------------------------


E-----------------------------------------------------------
B-------------5-----5-----5-----5-----------4-----4---------
G-------------5-0---5-0---5-0---5---0-------5-0---5-0-------
D-6b(7)-3---------8-----8-----8---8---5/7\6-----7-----7-----
A---------5-3-----------------------------------------------
E-----------------------------------------------------------


E-----------------------------------------------------------
B-4p3---1---------------------------------------6-----------
G-5p3---1h2---------------3-----------------5-7---7-8-5p4-3-
D-----3-----3-2-1-----3-5---(6)r5p3---3-5/7-----------------
A-----------------3h5---------------5-----------------------
E-----------------------------------------------------------


E-----------------------------------------------------------
B-------------------------------------------5-----5-----5---
G-------3-1p0-------------------------------5-0---5-0---5-0-
D-6\5-3-------3p0---2/3-3-3-3-1p0---0-----------8-----8-----
A-----------------3---------------3---1/3\1-----------------
E-----------------------------------------------------------


E-----------------------------------------------------------
B---5-----------4-----4-----4-----5-------5-----5-----5-----
G---5---0-------5-0---5-0---5-0---4-------5-0---5-0---5-0---
D-8---8---5/7\6-----7-----7-----7---7---------8-----8-----8-
A-------------------------------------5/7-------------------
E-----------------------------------------------------------


E-----------------------------------------------------------
B-5-10-8-6-5\4---------3-------------5-----5-----5-----5----
G-5-10-8-7-6\5-4\3p1---3-1p0---------5-0---5-0---5-0---5---0
D--------------------3-------3-----------8-----8-----8---8--
A------------------------------5-3/7------------------------
E-----------------------------------------------------------


E-----------------------------------------------------------
B-------4-----4-----4p3---1---------------------------------
G-------5-0---5-0---5p3---1h2----------------3--------------
D-5/7\6-----7-----7-----3-----3---1------3-5---6\5p3---3-5/7
A-------------------------------3----3h5-------------5------
E-----------------------------------------------------------


E---------------------------------------------
B-----6---------3-----------------------------
G-5-7---7-8-5-4-3b(4)-0-----------3-1h2-------
D-----------------------6\5p0-1h3-------3-1-3-
A---------------------------------------------
E---------------------------------------------


Solo #1

E-------------5----------5----------------------------------
B-----------5---5-8b(10)---5--------------------------------
G-4h6-7b(9)------------------8\7p5---5-6--------------------
D----------------------------------7-----7-5----------------
A--------------------------------------------7-6-5-0-3p2p2--
E----------------------------------------------------------2


E--------------------------------------------7----8----7----
B-----------------------------------3----------10---10---10-
G-------------------------------2-4---9b(11)----------------
D-------4-7\6---5---4---2-0-2/4-----------------------------
A---2/4-------8---7---5-------------------------------------
E-0---------------------------------------------------------


E-------------------------------------7-5-----------------
B-8b(10)-8-6-7---------------------3--8-6-8-8-8-5---3-----
G--------------7---5---------------2------7-6-5-5---3h4---
D----------------9---7\6-5-3b(4)-0----------------5-----5-
A---------------------------------------------------------
E---------------------------------------------------------


E---------------------------------------------------------
B-3p1-0-------------------------------------------------8-
G-3p2-0---------------0---------3h4---------------5-7/9---
D-------3-0-------------2b(3)r2-----5-3-------5-7---------
A-----------4-3-0-1-2-------------------5-5/7-------------
E---------------------------------------------------------


E-8-------------------------------------------------------
B---8-11b(13)---------------10----8-----------------------
G-------------12-11\10p8----10----8h9---------------------
D------------------------10----10-----10-8------------5-7-
A------------------------------------------10-9-8-6h7-----
E---------------------------------------------------------


E-----
B-5-5-
G-5-5-
D-----
A-----
E-----



Main Melody

E----------------------------------------------------------
B-----5-----5-----5-----5-----------4-----4-----4-4-3---1--
G-0---5-0---5-0---5-0---5---0-------5-0---5-0---5-5-3---1h2
D---8-----8-----8-----8---8---5/7\6-----7-----7-------3----
A----------------------------------------------------------
E----------------------------------------------------------


E----------------------------------------------------------
B-----5-----5-----5-----5-10-8-6-5\4-4p3---1-------------5-
G-----5-0---5-0---5-0---5-10-8-7-6\5-5p3---1h2p0---------5-
D-5/8-----8-----8-----8------------------3-------3p0-------
A----------------------------------------------------3/7---
E----------------------------------------------------------


E----------------------------------------------------------
B-----5-----5-----5-----------4---3---1--------------------
G-0---5-0---5-0---5---0-------5---3---1h2------------------
D---8-----8-----8---8---5/7\6---3---3-----3-1p0---1p0------
A-----------------------------------------------3-----3-2-1
E----------------------------------------------------------


E----------------------------------------------------------
B-----------------------6---9-8-6--------------------------
G-------------------5-----7-------8\5-2---1h2--------------
D-----3-6-5---3-5h7---7-----------------0-----3-0---3-3-3-3
A-3h5-------5-------------------------------------3--------
E----------------------------------------------------------


E-----------
B-----------
G-----------
D-1p0---0---
A-----3---3-
E-----------



Albert Lee Tabs & Chords



Albert Lee Tabs, Tablatures, Chords, Lyrics

Buy Albert Lee CD
Albert Lee
Buy Albert Lee CD

  1. Albert Lee - Bullish Boogie (part I) Tabs
  2. Albert Lee - Bullish Boogie (part Ii) Tabs
  3. Albert Lee - T-bird To Vegas Tabs



cowboylyrics.com
All lyrics are property and copyright of their owners. All lyrics provided for educational purposes only.