Chet Atkins, Take Five Tabs, Chords, Lyrics

Chet Atkins, Take Five Tabs, Chords

 SITE MENU
 Request Tabs
 Add/Correct Tabs
 DMCA Policy
 Country Sheet Music
0

BROWSE LYRICS AND TABS BY ARTIST/BAND NAME: SEARCH HERE:
A B C D E F G H I J K L M N O P Q R S T U V W X Y Z #
 

Chet Atkins - Take Five (Tabs)


Chet Atkins CD
Chet Atkins Sheet music
Chet Atkins Posters
                                    TAKE FIVE
                           As recorded by Chet Atkins
                      (From the 2000 Album ALONE  RCA-1973)

Music by Paul Desmond

This is a famous piece that most people will know. It's a good one
to impress people. Bass is important here as per all Atkins stuff.
I put coda's in here cause I didn't feel like doing some parts again.

An all time classic. I love it.


Gtr I (E A D G B E) - 'Guitar'


  Gtr I
|---0----0-|-3-------|--0---0-0-|-3------|---0----0-|-3-------|--0---0-0---|
|---0----0-|---------|--0-------|-2------|---0----0-|---------|--0---------|
|---0----0-|------2--|--------0-|-4---2--|---0----0-|------2--|--------0---|
|----------|------4--|----0-----|--------|----------|------4--|----0-------|
|----------|---2-----|----------|--------|----------|---2-----|--------0---|
|-0----0---|---------|------0---|--------|-0----0---|---------|--5---0-----|


    $
||--8------|-6-7-6-5---|-0-------|-0-0---0-0-|
||o--------|---------8-|---0-----|---0-------|
||---------|-----------|---------|---------0-|
||------7--|-----------|------4--|-----0-----|
||o--------|-7---------|---2-----|-----------|
||---------|-----------|---------|-------0---|


|--2h3p2-0--|-0------0-|------------|
|-----------|---0----0-|--3h5p3-----|
|--------2--|---0----0-|--------4-2-|
|-----------|----------|------------|
|-----------|----------|--2---------|
|-----------|-0----0---|------------|


|---0---0---|-8------|-6-7-6-5---|-0-------|
|-0-----4---|--------|---------8-|---0-----|
|---4-----0-|--------|-----------|---------|
|-----0-----|-----7--|-----------|------4--|
|---------0-|--------|-7---------|---2-----|
|---5---0---|--------|-----------|---------|


|-0-0---0-0-|-------------|------------|
|---0-------|-4-3h5p3-----|--------0---|
|---------0-|---------2-2-|---0----0---|
|-----0-----|-------------|---4----4---|
|-----------|-------------|------------|
|-------0---|-------0-----|-0----0-----|


               D.S. al Coda
               D.S. al Coda
|--2h3p2-0--|---0--0---0-0-|-12>---------|-^12-15--12----|
|-----------|------0-------|-12>---------|-^13--------13-|
|-----------|------------0-|--------------|---------------|
|-----------|--------0-----|--------12>--|---------------|
|--2--------|--------------|--------------|---0-----------|
|-----------|-12>-----0---|--------------|---------------|


|-13-^14------|-^10-12--10--|-11-12----!7----|
|----^10-12---|-^12---------|-----8-10-------|
|----^11------|-------------|----------------|
|-------------|-------------|-----------0----|
|-------------|--10---------|----------------|
|-----10------|-------------|----------------|


|-^-8-12--8----|-10s11-----|-7----0-8-10-|--10-12-11-13-|
|-^10-------10-|-----7-8---|---10--------|--------------|
|--------------|-----------|-------------|--------------|
|-----------10-|-----------|-------------|--------------|
|---0----------|-----0-----|-------------|--------------|
|--------------|-----------|-------------|--------------|


|-^12-15--12----|-13-^14------|-^10-12--10--|
|-^13--------13-|----^10-12---|-^12---------|
|---------------|----^11------|-------------|
|---------------|-------------|-------------|
|---0-----------|-------------|--10---------|
|---------------|-----10------|-------------|


|-11-12----!7--|-^-8-12--8----|------10-8-|
|-----8-10-----|-^10-------10-|--6p7------|
|--------------|--------------|-----------|
|-----------0--|-----------10-|-----------|
|--------------|---0----------|-----------|
|--------------|--------------|-----------|


                        &
|-7-0------||---0---0-0-|--------|---0-----0-|
|---0-----o||---0-------|-----3--|---0-------|
|-9--------||---------0-|-----2--|---0-----0-|
|-----7----||-----0-----|-----4--|-----0-----|
|---------o||-0---------|--2-----|-----------|
|----------||-----------|--------|-2-----0---|


|-3-------|---3\---4-3--|---------|---7-----7-|-7------|---3---4-3-|--------|
|---------|---5---------|------7--|---8-------|--------|---5-------|-----3--|
|------2--|----------4\-|-6----6--|---9-----9-|-----6--|-----3---4-|-----2--|
|---------|------0------|---------|-----0-----|-----7--|-----------|--------|
|---2-----|-0-----------|---------|-----------|--------|-------3---|--2-----|
|---------|-5----7------|---7-----|-5-----0---|--------|-2---------|--------|


|---10----0-|-3------|---0---2---|--------|--0-----0-|-2-------|---0---0-0-|
|----1------|--------|---0---1---|-----3--|--0-------|---------|---0-------|
|----0----0-|-0---0--|---1-----2-|-----2--|--0-----0-|-2----2--|---------0-|
|-----------|-----3--|-----2-----|-----1--|----0-----|---------|-----0-----|
|-0-----0---|--------|-2---------|--2-----|----------|---0-----|-0---------|
|-----------|--------|-----------|--------|------0---|---------|-----------|


                                
|--------|--0-----0-|-2-------|---0---0-0-|--------|-------------|----------|
|-----3--|--0-------|---------|---0-------|-----3--|-(3)---------|-0--------|
|-----2--|--0-----0-|-2----2--|---------0-|-----2--|-(2)-------0-|----------|
|-----1--|----0-----|---------|-----0-----|-----1--|-(1)-----4---|-------0h=|
|--2-----|----------|---0-----|-0---------|--2-----|-------2-----|----------|
|--------|------0---|---------|-----------|--------|-----0-------|-----2h3--|


|----------|-----------|----------|----------|--------*|
|----------|---------0-|-------7--|----------|--------*|
|-0---0----|---0---3---|-3---0----|----------|--------*|
|---7---7--|-4---7-----|---7---4--|-0------7-|---2p0--*|
|-----4----|-----------|----------|---4--0---|--------*|
|----------|-----------|----------|--------3p|========*|


Tablature Legend
----------------
 h   - hammer-on
 p   - pull-off
 b   - bend
 pb  - pre-bend
 r   - bend release (if no number after the r, then release immediately)
 /\  - slide into or out of (from/to "nowhere")
 s   - legato slide
 S   - shift slide
n>  - natural harmonic
[n]  - artificial harmonic
n(n) - tapped harmonic
 ~   - vibrato
 tr  - trill
 T   - tap
 TP  - trem. picking
 PM  - palm muting
\n/  - tremolo bar dip; n = amount to dip
 \n  - tremolo bar down
 n/  - tremolo bar up
/n\  - tremolo bar inverted dip
 =   - hold bend; also acts as connecting device for hammers/pulls
 >  - volume swell (louder/softer)
 x   - on rhythm slash represents muted slash
 o   - on rhythm slash represents single note slash



Atkins Chet Tabs & Chords



Atkins Chet Tabs, Tablatures, Chords, Lyrics

Buy Atkins Chet CD
Atkins Chet
Buy Atkins Chet CD

  1. Atkins Chet - Ave Maria Tabs
  2. Atkins Chet - Cascade Tabs
  3. Atkins Chet - Classical Gas Tabs
  4. Atkins Chet - Dizzy Fingers Chords
  5. Atkins Chet - Entertainer Tabs
  6. Atkins Chet - I Still Cant Say Goodbye Chords
  7. Atkins Chet - I'll Say She Does Tabs
  8. Atkins Chet - Imagine - Fingerstyle Tabs
  9. Atkins Chet - In The Mood - Fingerstyle Tabs
  10. Atkins Chet - La Madrugada Chords
  11. Atkins Chet - Mister Bojangles Chords
  12. Atkins Chet - Mr. Guitar Tabs
  13. Atkins Chet - Mr. Sandman(harp) Tabs
  14. Atkins Chet - Struttin Tabs
  15. Atkins Chet - Take Five Tabs
  16. Atkins Chet - There'll Be Some Changes Made Chords
  17. Atkins Chet - Vincent Chords
  18. Atkins Chet - Waltz For The Lonely Tabs
  19. Atkins Chet - Wilwood Flower - Fingerstyle Tabs
  20. Atkins Chet - Yankee Doodle Dixie Tabs



cowboylyrics.com
All lyrics are property and copyright of their owners. All lyrics provided for educational purposes only.