Big & Rich, Live This Life Tabs, Chords, Lyrics

Big & Rich, Live This Life Tabs, Chords

 SITE MENU
 Request Tabs
 Add/Correct Tabs
 DMCA Policy
 Country Sheet Music
0

BROWSE LYRICS AND TABS BY ARTIST/BAND NAME: SEARCH HERE:
A B C D E F G H I J K L M N O P Q R S T U V W X Y Z #
 

Big & Rich - Live This Life (Chords)


Big & Rich CD
Big & Rich Sheet music
Big & Rich Posters
CAPO on 2nd
Em             G          D          A   1st   2nd
E-----------------------------------|-----------|----|
B-----------------------------------|-----------|--2-|
G-------------------2----------2----|-------2---|--2-|
D--------2------------0------0---0--|-----2---2-|--2-|
A----0h2---2------2--------0--------|---0-------|--0-|
E--0------------3-------------------|-----------|----|
                                    x2

Em                G       
Met a man on the street last night
D                     A
he said his name was Jesus
Em                G           D A
Met a man on the street last night
Em             G
Thought he was crazy till,
D                     A
I watched him heal a blind man
Em                    G 
I watched him heal a blind man
       D   A       
Now i see yeah



Em               G
I'll live this life until
      D                 A
This life won't let me live 
              Em      G
here anymore, Then i walk yes
         D                  A
i will walk with patience through
             Em             G
that open door, I have no fears,
          D          A          Em
Angels follow me wherever i may go
                G
I'll live this life until 
      D                 A
this life won't let me live 
            Em
here any more.


Em                  G           
Met a girl in a chair with wheels,
D                     A 
but noone else would see her
Em               G          D A
Met a girl in a chair with wheels
Em                 G        D
everyone was so afraid to even look
      A              Em
down on her, And she just spread her 
        G               D  A
little wings and flew away yeah

Solo Plays during ohs
e |-----------------------|---10---7-------5---7-----|-------------------------|
B |--5--8--7--5--3--0--5--|--------------------------|---5--8--7--5--3--0--5---|
G |-----------------------|--------------------------|-------------------------|
D |-----------------------|--------------------------|-------------------------|
A |-----------------------|--------------------------|-------------------------|
E |-----------------------|--------------------------|-------------------------|

e |--10--7--8--5--7--3--5--2--0--|--------------------------------------------|
B |------------------------------|--0--3--5-----------------------------------|
G |------------------------------|--------------------------------------------|
D |------------------------------|--------------------------------------------|
A |------------------------------|--------------------------------------------|
E |------------------------------|--------------------------------------------|
          Em,G,D,A  Em,G,D,A  Em,G,D,A
live here any more, oh oh oh, oh oh oh,


Em                G 
Met a kid on a bridge last night,
D               A
contemplating freedom,
Em              G          D A
Met a kid on a bridge last night
          Em                   G
And he said"I'm tired of this maddening
               D                 A
life and i'm ready to go meet Jesus"
        Em                G         
I said "He's a friend of mine, met him
           D                 A       Em,G,D,A
just last night, and its all right, yeah"
           Em   G,D,A
it's all right, yeah.


          Em,G,D,A Em,G,D,A  Em,G,D,A
live here anymore, oh oh oh, oh oh oh


Em                  G 
Met a man on the street last night,
D                      A
he said his name was Jesus,
Em                  G         D (arpeggiated) 
Met a man on the street last night

[Thanks to Dlburch for tabs]


Big & Rich Tabs & ChordsBig & Rich Lyrics



Big & Rich Tabs, Tablatures, Chords, Lyrics

Buy Big & Rich CD
Big & Rich
Buy Big & Rich CD

  1. Big & Rich - 20 Margaritas Chords
  2. Big & Rich - 8th Of November Chords
  3. Big & Rich - Between Raising Hell And Amazing Grace Chords
  4. Big & Rich - Big Time Chords
  5. Big & Rich - Blow My Mind Chords
  6. Big & Rich - Caught Up In The Moment Chords
  7. Big & Rich - Comin' To Your City Chords
  8. Big & Rich - Deadwood Mountain Chords
  9. Big & Rich - Discoball Chords
  10. Big & Rich - Drinkin' Bout You Chords
  11. Big & Rich - Eternity Chords
  12. Big & Rich - Find A Heart Chords
  13. Big & Rich - Holy Water Chords
  14. Big & Rich - I Pray For You Chords
  15. Big & Rich - Jalapeno Tabs
  16. Big & Rich - Kick My Ass Chords
  17. Big & Rich - Leap Of Faith Chords
  18. Big & Rich - Live This Life Chords
  19. Big & Rich - Livin' This Life Tabs
  20. Big & Rich - Lost In The Moment Chords
  21. Big & Rich - Love Train Chords
  22. Big & Rich - Love Train (intro) Chords
  23. Big & Rich - Never Mind Me Chords
  24. Big & Rich - Radio Chords
  25. Big & Rich - Real World Chords
  26. Big & Rich - Rollin' Chords
  27. Big & Rich - Rollin' (the Ballad Of Big And Rich) Chords
  28. Big & Rich - Rollin' Corrected Intro Tabs
  29. Big & Rich - Rollin-guitar Intro Tabs
  30. Big & Rich - Save A Horse, Ride A Cowboy Chords
  31. Big & Rich - Saved Tabs
  32. Big & Rich - Saved (intro) Chords
  33. Big & Rich - Six Foot Town Chords
  34. Big & Rich - Soul Shaker Chords
  35. Big & Rich - That's Why I Pray Chords
  36. Big & Rich - The Bob Song Chords
  37. Big & Rich - The Freak Parade Chords
  38. Big & Rich - Wild West Show Chords
  39. Big & Rich - You Shook Me All Night Long Chords



cowboylyrics.com
All lyrics are property and copyright of their owners. All lyrics provided for educational purposes only.