Big & Rich, Love Train Tabs, Chords, Lyrics

Big & Rich, Love Train Tabs, Chords

 SITE MENU
 Request Tabs
 Add/Correct Tabs
 DMCA Policy
 Country Sheet Music
0

BROWSE LYRICS AND TABS BY ARTIST/BAND NAME: SEARCH HERE:
A B C D E F G H I J K L M N O P Q R S T U V W X Y Z #
 

Big & Rich - Love Train (Chords)


Big & Rich CD
Big & Rich Sheet music
Big & Rich Posters
E-----------------------------------------------------------
B-----------------------------------------------------------
G-------------------------------------------3--4--5--5------
D------------------------------3--4--5--5-------------------
A------------------3--4--5--5-------------------------------
E---0--3--4--5--5-------------------------------------------
                                            Play 4x


A      G            D
I see people gettin mad on CNN

E-----------------------------------------------------------
B---7s5--5s4--4s2--0h2--------------------------------------
G-----------------------------------------------------------
D-----------------------------------------------------------
A-----------------------------------------------------------
E-----------------------------------------------------------

A      G            D             A    G    D
Who's right democrats or republicans
A       G           D         A
I don't care who's right or wrong 
A        G          D         A
I know a way we can all get along



Chorus:
A          A   D   G  
Let's take a ri-----de 
A                        D         G      A
Let's take a ride on the love train
A    D   G            A            D        G
Unw----ind, we'll be chugga luggin all the way
      A   D   G                        A   D   G
Let's ro----ll, like the stones playin all day hey
             A  D  G
Let's take a ri--de
(no chord)               A
Let's take a ride on the love train

(repeat intro)

The whole color thing's never made sense to me

E-----------------------------------------------------------
B---7s5--5s4--4s2--0h2--------------------------------------
G-----------------------------------------------------------
D-----------------------------------------------------------
A-----------------------------------------------------------
E-----------------------------------------------------------

Who gives a hoot if your red, yellow, purple, or pink
We're all mixed up anyway  (anyway)
We might as well give each other a break

(repeat chorus)

A G D (Muted)

A                         G
So let's forget about the hatin'
        D                 A
and the way the bulls are playin'
        A             G                 D            A
without Jordan on the team and the high price of gasoline
             A          G
and if your livin' in a bubble
       D                 A
then i guess you got no troubles
            A             G
But if your anything like me 
            D              A
Well then i bet you really need it

(repeat chorus)
A                        D       G
Let's take a ride on the love train
A                        D       G
let's take a ride on the love train


Big & Rich Tabs & ChordsBig & Rich Lyrics



Big & Rich Tabs, Tablatures, Chords, Lyrics

Buy Big & Rich CD
Big & Rich
Buy Big & Rich CD

  1. Big & Rich - 20 Margaritas Chords
  2. Big & Rich - 8th Of November Chords
  3. Big & Rich - Between Raising Hell And Amazing Grace Chords
  4. Big & Rich - Big Time Chords
  5. Big & Rich - Blow My Mind Chords
  6. Big & Rich - Caught Up In The Moment Chords
  7. Big & Rich - Comin' To Your City Chords
  8. Big & Rich - Deadwood Mountain Chords
  9. Big & Rich - Discoball Chords
  10. Big & Rich - Drinkin' Bout You Chords
  11. Big & Rich - Eternity Chords
  12. Big & Rich - Find A Heart Chords
  13. Big & Rich - Holy Water Chords
  14. Big & Rich - I Pray For You Chords
  15. Big & Rich - Jalapeno Tabs
  16. Big & Rich - Kick My Ass Chords
  17. Big & Rich - Leap Of Faith Chords
  18. Big & Rich - Live This Life Chords
  19. Big & Rich - Livin' This Life Tabs
  20. Big & Rich - Lost In The Moment Chords
  21. Big & Rich - Love Train Chords
  22. Big & Rich - Love Train (intro) Chords
  23. Big & Rich - Never Mind Me Chords
  24. Big & Rich - Radio Chords
  25. Big & Rich - Real World Chords
  26. Big & Rich - Rollin' Chords
  27. Big & Rich - Rollin' (the Ballad Of Big And Rich) Chords
  28. Big & Rich - Rollin' Corrected Intro Tabs
  29. Big & Rich - Rollin-guitar Intro Tabs
  30. Big & Rich - Save A Horse, Ride A Cowboy Chords
  31. Big & Rich - Saved Tabs
  32. Big & Rich - Saved (intro) Chords
  33. Big & Rich - Six Foot Town Chords
  34. Big & Rich - Soul Shaker Chords
  35. Big & Rich - That's Why I Pray Chords
  36. Big & Rich - The Bob Song Chords
  37. Big & Rich - The Freak Parade Chords
  38. Big & Rich - Wild West Show Chords
  39. Big & Rich - You Shook Me All Night Long Chords



cowboylyrics.com
All lyrics are property and copyright of their owners. All lyrics provided for educational purposes only.