Junior Brown, Gal From Oklahoma Tabs, Chords, Lyrics

Junior Brown, Gal From Oklahoma Tabs, Chords

 SITE MENU
 Request Tabs
 Add/Correct Tabs
 DMCA Policy
 Country Sheet Music
0

BROWSE LYRICS AND TABS BY ARTIST/BAND NAME: SEARCH HERE:
A B C D E F G H I J K L M N O P Q R S T U V W X Y Z #
 

Junior Brown - Gal From Oklahoma (Chords)


Junior Brown CD
Junior Brown Sheet music
Junior Brown Posters

Song: The Gal From Oklahoma
Artist: Junior Brown
Album: Guit With It
---------------------------
Tabbed by James Lee (jameslee@leland.stanford.edu)

This song is played very sloppily on the CD, so there's no real
reason to tab out the whole thing - I did the first verse, and
you can mess around with that to get the rest of the song.

Intro
-----
         C
-------|-----0---0-------|-----0---0-------|
-------|-----1---1-------|-----1---1-------|
-------|-----0---0-------|-----0---0-------|
-------|-----2---2-------|-----2---2-------|
---0-2-|-3---3---3---0-2-|-3---3---3-------|
-3-----|-----------3-----|-----------------|


Verse
-----
She treats me fair and I never let her down
  C
|-----0-----------|-----0-----------|-----0---0-------|-----0---0---0---|
|-----1-----------|-----1-----------|-----1---1-------|-----1---1---1---|
|-----0-----------|-----0-----------|-----0---0-------|-----0---0---0---|
|-----2-----------|-----2-----------|-----2---2-------|-----2---2---2---|
|-3---3-------0-2-|-3---3-------0-2-|-3---3---3---0-2-|-3---3---3---3---|
|---------3-------|---------3-------|-----------3-----|-----------------|

She treats me fair and I never let her down
  F                                   C
|-----1---------1-|-----1---------1-|-----0---0-------|-----0---0-------|
|-----1---------1-|-----1---------1-|-----1---1-------|-----1---1-------|
|-----2---------2-|-----2---------2-|-----0---0-------|-----0---0-------|
|-3---3-------3-3-|-3---3---------3-|-----2---2-------|-----2---2-------|
|-----------------|-----------------|-3---3---3---0-2-|-3---3---3-------|
|-----------------|-----------------|-----------3-----|-----------------|

She's the gal from Oklahoma, they call her Sissie Brown
  G/B               G                 C
|-----0---1-------|-----1-----------|-----0---0-------|-----0---0-------|
|-----0---0-------|-----0-----------|-----1---1-------|-----1---1-------|
|-----0---0-------|-----0-----------|-----0---0-------|-----0---0-------|
|-----0-------0---|-----0-------0---|-----2---2-------|-----2---2-------|
|-2---------------|-----------------|-3---3---3---0-2-|-3---3---3-------|
|-----------------|-3-------3-------|-----------3-----|-----------------|


2nd verse:
w/ first 11 bars of rhythm figure above (with variations)

She's the sweetest little gal from Schulter to Brush Hill (sweetest one)
She's the sweetest little gal from Schulter to Brush Hill
I'm proud to be her man and I know I always will...  Yodel-

-ayheeeee                    Yodelayheeee
 C                          G         C
|-----0-----------|-----0-----------|-----0---0-------|-----0---0-------|
|-----1-----------|-----1-------3---|-----1---1-------|-----1---1-------|
|-----0-----------|-----0-------0---|-----0---0-------|-----0---0-------|
|-----2-----------|-----2-------0---|-----2---2-------|-----2---2-------|
|-3---3-------0-2-|-3---3-----------|-3---3---3---0-2-|-3---3---3-------|
|---------3-------|---------3-------|-----------3-----|-----------------|


The rest of the song:
w/ variations on the rhythm figures used so far

She comes from Oklahoma where the grass grows high
I'm gonna stay with her till the day that I die
Till the day that I die
With the gal from Oklahoma until the day I die

Yodelayheee  Yodelayheeee

When I hear a lonesome whistle blowin' by old seventy-five
When I hear a lonesome whistle blowin' by old seventy-five
It reminds me of my darlin' where she always lived her life

She comes from Oklahoma where the grass grows high
I'm gonna stay with her till the day that I die
Till the day that I die
With the gal from Oklahoma until the day I die

Yodelayheee  Yodelay-

last two bars:

-heeeeeee
 C
|-----0-----------|---------0-------|
|-----1-----------|---------1-------|
|-----0-----------|---------0-------|
|-----2-----------|---0-1-2-2-------|
|-3---3-------0-2-|-3-------3-------|
|---------3-------|-----------------|



Brown Junior Tabs & ChordsBrown Junior Lyrics



Brown Junior Tabs, Tablatures, Chords, Lyrics

Buy Brown Junior CD
Brown Junior
Buy Brown Junior CD

  1. Brown Junior - Broke Down South Of Dallas Chords
  2. Brown Junior - Didnt Have To Go All Way Chords
  3. Brown Junior - Gal From Oklahoma Chords
  4. Brown Junior - Guit With It Chords
  5. Brown Junior - I Hung It Up Chords
  6. Brown Junior - Joe The Singing Janitor Chords
  7. Brown Junior - Long Walk Back To San Antone Chords
  8. Brown Junior - My Baby Don't Dance To Nothin' But Ernest Tubb Chords
  9. Brown Junior - My Wife Thinks Youre Dead Chords
  10. Brown Junior - My Wife Thinks Youre Dead 2 Chords
  11. Brown Junior - Read Em And Weep Chords
  12. Brown Junior - Sugarfoot Rag Chords
  13. Brown Junior - The Highway Patrol Chords
  14. Brown Junior - Too Many Nights In A Roadhouse Chords
  15. Brown Junior - Venom Wearin Denim Chords
  16. Brown Junior - What Comes Easy To A Fool Chords
  17. Brown Junior - You Didn't Have to Go All the Way Chords



cowboylyrics.com
All lyrics are property and copyright of their owners. All lyrics provided for educational purposes only.