Junior Brown, Sugarfoot Rag Tabs, Chords, Lyrics

Junior Brown, Sugarfoot Rag Tabs, Chords

 SITE MENU
 Request Tabs
 Add/Correct Tabs
 DMCA Policy
 Country Sheet Music
0

BROWSE LYRICS AND TABS BY ARTIST/BAND NAME: SEARCH HERE:
A B C D E F G H I J K L M N O P Q R S T U V W X Y Z #
 

Junior Brown - Sugarfoot Rag (Chords)


Junior Brown CD
Junior Brown Sheet music
Junior Brown Posters

song; sugarfoot rag
writer:hank garland/vaughn horton
album: junior high
artist: junior brown
ok...here is how iv'e figured out how to play this ultra fast song. now
keep in mind, in concert junior doesnt play this the same way twice, and
since this is a jam, except for a few parts that are recalled during the
song, many parts are improvised and repeated.this is the 'rougher' 
version from junior high. i will transcribe the 12 shades of brown 
version later(its basically the same, but without as much overdrive)

opening lick:(haulin'ass!)
---------------------------------------0-3-0---------------------
-------------------------------------3-------3-0--------------3--
---------------------------------2-4-------------2-0-2-0---0--2--
---12/\/\------rake strings----x-------------------------2-------
-----------------------------x-----------------------------------
-12-------------------------x------------------------------------
(HARM.)
here is the main theme which is recalled many times during the song:
(w/slight variations many times)
---0-3-3-5-3-0--0--1-0-1-3-1------1-----0-0--------------------
-3------------3---------------------2/3-----3-0----------------
------------------------------------------------2-0-2-0-----0--
---------------------------------------------------------2-0---
---------------------------------------------------------------
---------------------------------------------------------------
play main theme then this which is recalled later several times along 
with the main theme:
---------------------------repeat 3x      ------------
/3-/3--------3-------------w/variations   ----1-1-----
/4-/4--0/2/4---4\2-0-2-0---then this lick --0-2-0-----
---------------------------ends with>>>>  ------------
---------------------------               ------------
---------------------------               ------------

then this is played before you go back into main theme:
3-0-------------------------------
----3-0-3-0-------------/3\1------back to main theme
------------2-0-2-0-----/4\0------
--------------------2-0-----------
----------------------------------
----------------------------------
after main theme play this. hold the bends on the g stringand let them
ring out as you play the other notes on the e&b strings....
----3----3---------3----------3------------
----3------3-3---3---3------3---3----------cont. w/variations..
------2/-----2/\-----2/--2/-------2/\------
-------------bend--------------------------
-------------&release----------------------
-------------------------------------------

-----3---------------
---3---3-------------
2/-------2/\-0-/12\0-this part is repeated several 	
			       times using hammers and pulls
                                       for best results, fret the low
                                       e string with your thumb...
***bend only the notes on the g string***
---------------------------------------------------------------------------3------6-----10-----13---->>---climb to>-------------20---20--20------
0-2--0-3--0-4--------------then -------------19----19--19---ETC...
---------------------------repeat---------------------------------
---------------------------many times-----------------------------
------------------------------------------------------------------
then..bend g string&hold while playing the other 2 notes
-----20----------------------------------
--20-20--------------------------17------


Brown Junior Tabs & ChordsBrown Junior Lyrics



Brown Junior Tabs, Tablatures, Chords, Lyrics

Buy Brown Junior CD
Brown Junior
Buy Brown Junior CD

  1. Brown Junior - Broke Down South Of Dallas Chords
  2. Brown Junior - Didnt Have To Go All Way Chords
  3. Brown Junior - Gal From Oklahoma Chords
  4. Brown Junior - Guit With It Chords
  5. Brown Junior - I Hung It Up Chords
  6. Brown Junior - Joe The Singing Janitor Chords
  7. Brown Junior - Long Walk Back To San Antone Chords
  8. Brown Junior - My Baby Don't Dance To Nothin' But Ernest Tubb Chords
  9. Brown Junior - My Wife Thinks Youre Dead Chords
  10. Brown Junior - My Wife Thinks Youre Dead 2 Chords
  11. Brown Junior - Read Em And Weep Chords
  12. Brown Junior - Sugarfoot Rag Chords
  13. Brown Junior - The Highway Patrol Chords
  14. Brown Junior - Too Many Nights In A Roadhouse Chords
  15. Brown Junior - Venom Wearin Denim Chords
  16. Brown Junior - What Comes Easy To A Fool Chords
  17. Brown Junior - You Didn't Have to Go All the Way Chords



cowboylyrics.com
All lyrics are property and copyright of their owners. All lyrics provided for educational purposes only.