Tracy  Byrd, Dont Take Her 2 Tabs, Chords, Lyrics

Tracy Byrd, Dont Take Her 2 Tabs, Chords

 SITE MENU
 Request Tabs
 Add/Correct Tabs
 DMCA Policy
 Country Sheet Music
0

BROWSE LYRICS AND TABS BY ARTIST/BAND NAME: SEARCH HERE:
A B C D E F G H I J K L M N O P Q R S T U V W X Y Z #
 

Tracy Byrd - Dont Take Her 2 (Chords)


Tracy Byrd CD
Tracy Byrd Sheet music
Tracy Byrd Posters

Subject: "Don't Take Her She's All I Got"....Tracy Byrd
Words & Music by: Jerry Williams & Gary U. S. Bonds
Album:  "BIG LOVE" on MCA Records
Submitted by:   Clay Burgett (pburgett@cas.org) using material from
		Sonia...."SMonia@PanAm.Edu" already posted.

**Capo 3rd fret
		 DON'T TAKE HER SHE'S ALL I GOT

Well I Said [G] Friend
Don't Take Her She's [C] All I've Got
[Am] Please Don't Take Her [D] Love Away From [G] Me
[D] I'm beggin' You [G] Friend
Don't Take Her She's [C] All I've Got
She's [Am] Every [Bm] thing In [C] Life I'll [D] Ever [G] Need

She is [Am] life when [D] I want to live
She's [Am] every [Bm] thing to [C] me in [D] life that [G] life can give
She's my [Am] water when I [D] need a drink
She's the [Am] first thought [Bm] in my [C] mind
Each [D] time I [G] try to think
[D] Let me tell you now....

[G] Friend Don't Take Her [C] She's All I've Got
[Am] Please Don't Take Her [D] Love Away From [G] Me
[D] I'm Beggin' You [G] Friend
Don't Take Her She's [C] All I've Got
She's [Am] Every [Bm] thing In [C] Life I'll [D] Ever [G] Need

SOLO

She's my [Am] fingers when I [D] want to feel
She's the [Am] only [Bm] thing in [C] life to [D] me that's [G] really real
She is [Am] love she's all the [D] love I know
She could [Am] kiss the [Bm] ground in the [C] wintertime
And [D] make a flower grow

Let Me Tell You Now...Fade

Notes: In the second verse on "grow" play
					[D]                             [G]
	 1   &   2   &   3   &   4   &   1   &   2   &   3   &   4   &   1
     ...grow                                    Let me tell you know   Friend
	---------------------------------2--------------------------------
	---------------------------------3--------------------------------
	-------------------------0-------2--------------------------------
	---------0-------0---2-----------0--------------------------------
	-0---2------------------------------------------------------------
	------------------------------------------------------------------

The Solo is just a take off of the melody, the problem is I'm not good at
figuring out the melody.  If anyone has it fingered, please send it to me or
post it.  This is all what I have.

   1   &   2   &   3   &   4   &   1   &   2   &   3   &   4   &
				  [G]
E----------------------------------------------------------------
B----------------------------------------------------------------
G----------------------------------------------------------------
D--------------------------0-------4-----------------------------
A----------0-------0-h-2-----------------------------------------
E----------------------------------------------------------------
				  [C]
E----------------------------------------------------------------
B----------------------------------------------------------------
G----------------------------------------------------------------
D----------4-------4---2---0-------2-------4---------------------
A----------------------------------------------2-----------------
E----------------------------------------------------------------

Material was submitted using the following as resources:
	-The video on CMT
	-The record
	-Sonia...."SMonia@PanAm.Edu" who posted the earlier version
	-My own thoughts (or lack thereof)


Byrd Tracy Tabs & ChordsByrd Tracy Lyrics



Byrd Tracy Tabs, Tablatures, Chords, Lyrics

Buy Byrd Tracy CD
Byrd Tracy
Buy Byrd Tracy CD

  1. Byrd Tracy - Anybody Elses Heart But Mi Chords
  2. Byrd Tracy - Big Love Chords
  3. Byrd Tracy - Dont Take Her Chords
  4. Byrd Tracy - Dont Take Her 2 Chords
  5. Byrd Tracy - Drinkin Bone Chords
  6. Byrd Tracy - Every Time I Do Chords
  7. Byrd Tracy - First Step Is The Two Step Chords
  8. Byrd Tracy - Good Old Fashion Love Chords
  9. Byrd Tracy - Heaven In My Womans Eyes Chords
  10. Byrd Tracy - Holdin Heaven Chords
  11. Byrd Tracy - Hot Night In The Country Chords
  12. Byrd Tracy - How Good Youve Got It Chords
  13. Byrd Tracy - I Wanna Feel That Way Again Chords
  14. Byrd Tracy - If Momma Ain't Happy Chords
  15. Byrd Tracy - Im From The Country Chords
  16. Byrd Tracy - Just Let Me Be In Love Chords
  17. Byrd Tracy - Just Let Me Be In Love 2 Chords
  18. Byrd Tracy - Keeper Of The Stars Chords
  19. Byrd Tracy - Keeper Of The Stars 2 Chords
  20. Byrd Tracy - Keeper Of The Stars 3 Chords
  21. Byrd Tracy - Lately Chords
  22. Byrd Tracy - Lifestyles Not So Rich Chords
  23. Byrd Tracy - Love Lessons Chords
  24. Byrd Tracy - Love Lessons 2 Chords
  25. Byrd Tracy - Make A Diamond Shine Chords
  26. Byrd Tracy - Mossy Oak Song (Pass It On) Chords
  27. Byrd Tracy - No Ordinary Man Chords
  28. Byrd Tracy - Pink Flamingos Chords
  29. Byrd Tracy - Put Your Hand In Mine Chords
  30. Byrd Tracy - Redneck Roses Chords
  31. Byrd Tracy - Redneck Roses 2 Chords
  32. Byrd Tracy - Someone To Give Love Chords
  33. Byrd Tracy - Someone To Give Love To Chords
  34. Byrd Tracy - Take Me With You When Go Chords
  35. Byrd Tracy - Ten Rounds Of Jose Cuervo Chords
  36. Byrd Tracy - Ten Rounds Of Jose Cuervo 2 Chords
  37. Byrd Tracy - The Truth About Men Chords
  38. Byrd Tracy - Tucson Too Soon Chords
  39. Byrd Tracy - Watermelon Crawl Chords
  40. Byrd Tracy - Why Dont Telephone Ring Chords
  41. Byrd Tracy - You Never Know Just How Good Youve Got It Chords



cowboylyrics.com
All lyrics are property and copyright of their owners. All lyrics provided for educational purposes only.