My Morning Jacket, Easy Morning Rebel Tabs, Chords, Lyrics

My Morning Jacket, Easy Morning Rebel Tabs, Chords

 SITE MENU
 Request Tabs
 Add/Correct Tabs
 DMCA Policy
 Country Sheet Music
0

BROWSE LYRICS AND TABS BY ARTIST/BAND NAME: SEARCH HERE:
A B C D E F G H I J K L M N O P Q R S T U V W X Y Z #
 

My Morning Jacket - Easy Morning Rebel (Chords)


My Morning Jacket CD
My Morning Jacket Sheet music
My Morning Jacket Posters
Capo on 1

 

VERSE:   

      G                    C                                 G

e-----------0--0--0--0--0--3--3--3----

B-----------1--1--1--1--1--3--3--3----

G-----------0--0--0--0--0--0--0--0----

D-----------2--2--2--2--2--0--0--0----

A-----0--2--3--3--3--3--3--2--2--2----

E--3-----------------------3--3--3----

well the easy mornin rebel, well he has come. 

come down from heaven, all bathed in sun
he'll take to flyin, he'll take to the road... 

as long as he's movin to get dey blood!
e--------------0----

B--------------3----

G--------------2----

D-----------0--0----

A-------------------

E--3--2--0----------

D

he'll be the water if you'll be the wine. 

C

sent down from heaven in this earthly disguise
G

 

VERSE(as before):

well the evening rebel, his heart is stone. 

this earthly body... just a temporary home
a dream of movin moves on thru the night
and he sure looks good when he moves in the light
he'll be the water if you'll be the wine. 

sent down from heaven in this earthly disguise



G walk-down to D (tempo slows with walk-down)

 

D

black hearted ruler? I only knew...
G

that loving moment I had with you

 

OUTRO:

e------3--3--3--------------

B------3--3--3--------------

G------0--0--0--------------

D------0--0--0--------------   X 4

A------2--2--2----1----1----

E---3--3--3--3--3----3------

 

   G

e----------------------------

B----------------------------

G----------------------------

D-------------------3---5----  X 12

A--------1--31-3s5---5------

E--1--3----------------------

 

   G        C

e--3--3--3--0---0----

B--3--3--3--1---1----

G--0--0--0--0---0----

D--0--0--0--2---2----  X 8

A--2--2--2--3---3----

E--3--3--3-----------

 

   G                 C

e-----------------------------------------

B-----------------------------------------

G--7-7-7-5--------3--7-7-7-5--35p35p3---

D--5-5-5-3--33h5----5-5-5-3--------------  X 12

A-----------------------------------------

E-----------------------------------------

 



My Morning Jacket Tabs & ChordsMy Morning Jacket Lyrics



My Morning Jacket Tabs, Tablatures, Chords, Lyrics

Buy My Morning Jacket CD
My Morning Jacket
Buy My Morning Jacket CD

  1. My Morning Jacket - Anytime Chords
  2. My Morning Jacket - At Dawn Chords
  3. My Morning Jacket - Bermuda Highway Chords
  4. My Morning Jacket - Butch Cassidy Chords
  5. My Morning Jacket - By My Car Chords
  6. My Morning Jacket - Can You See The Hard Helmet On My Head? Chords
  7. My Morning Jacket - Chills Chords
  8. My Morning Jacket - Cobra Chords
  9. My Morning Jacket - Come Closer Chords
  10. My Morning Jacket - Dancefloors Chords
  11. My Morning Jacket - Death is the Easy Way Chords
  12. My Morning Jacket - Dondante Chords
  13. My Morning Jacket - Easy Morning Rebel Chords
  14. My Morning Jacket - Evelyn is Not Real Chords
  15. My Morning Jacket - Gideon Chords
  16. My Morning Jacket - Heartbreakin Man Chords
  17. My Morning Jacket - Holy Chords
  18. My Morning Jacket - Honest Man Chords
  19. My Morning Jacket - Hopefully Chords
  20. My Morning Jacket - How Could I Know? Chords
  21. My Morning Jacket - Just Because I Do Chords
  22. My Morning Jacket - Just One Thing Chords
  23. My Morning Jacket - Knot Comes Loose Chords
  24. My Morning Jacket - The Bear Chords
  25. My Morning Jacket - The Dark Chords



cowboylyrics.com
All lyrics are property and copyright of their owners. All lyrics provided for educational purposes only.