My Morning Jacket, Honest Man Tabs, Chords, Lyrics

My Morning Jacket, Honest Man Tabs, Chords

 SITE MENU
 Request Tabs
 Add/Correct Tabs
 DMCA Policy
 Country Sheet Music
0

BROWSE LYRICS AND TABS BY ARTIST/BAND NAME: SEARCH HERE:
A B C D E F G H I J K L M N O P Q R S T U V W X Y Z #
 

My Morning Jacket - Honest Man (Chords)


My Morning Jacket CD
My Morning Jacket Sheet music
My Morning Jacket Posters
G riff (guitar 1):
e-----3----------------------- 
B-----3----------------------- 
G-----0---0-0--0-------------- 
D-----0---0-0----3p-2p-0------   (X 4)
A-----2----------------------- 
E--3--3-----------------------
  

G riff (guitar 2):

e----------------------------------------------

B----------------------------------------------

G----------------------------------------------

D-----s5-s5---5--3-2-------s5-s5---5--3-2------   (X 4)

A--------------------5--------------------5----

Eó-3--------------------3----------------------


G.......................G riff...G.....G riff...G 
Try to walk this earth an honest man 
C.............Fmaj........C.............G riff 
But evil waves at me its ugly hand 
......D 
The radar watches   
C....Fmaj....G riff 
me from above 
D 
Shouting  down you'll never 
C...........Fmaj....G riff 
make it on this earth 
  
G 
Sometimes this world wil leave you, lord, 
C.........Fmaj........C 
Kicking and a-screaming 
Am 
Wondering if you'll see the next day 
D                     e--------3--------3--------3---------3-----
through             B--3h-5-----3h-5-----3h-5-----3h-5---------

  
G 
But as for me I do believe that 
C 
Good luck comes from trying 
    G 
So until I get mine I will   
D 
work me the whole day   
C 
through

Guitar 1 plays intro part for guitar 1 while guitar 2 plays:

 

e---------------        ------------------------------
B-----------8---        --8--6--8--6--8--6--8--6--8--- 
G-----5--7------  (X 3) --7--7--7--7--7--7--7--7--7---
D--5------------        ------------------------------
A---------------        ------------------------------
E---------------        ------------------------------



My Morning Jacket Tabs & ChordsMy Morning Jacket Lyrics



My Morning Jacket Tabs, Tablatures, Chords, Lyrics

Buy My Morning Jacket CD
My Morning Jacket
Buy My Morning Jacket CD

  1. My Morning Jacket - Anytime Chords
  2. My Morning Jacket - At Dawn Chords
  3. My Morning Jacket - Bermuda Highway Chords
  4. My Morning Jacket - Butch Cassidy Chords
  5. My Morning Jacket - By My Car Chords
  6. My Morning Jacket - Can You See The Hard Helmet On My Head? Chords
  7. My Morning Jacket - Chills Chords
  8. My Morning Jacket - Cobra Chords
  9. My Morning Jacket - Come Closer Chords
  10. My Morning Jacket - Dancefloors Chords
  11. My Morning Jacket - Death is the Easy Way Chords
  12. My Morning Jacket - Dondante Chords
  13. My Morning Jacket - Easy Morning Rebel Chords
  14. My Morning Jacket - Evelyn is Not Real Chords
  15. My Morning Jacket - Gideon Chords
  16. My Morning Jacket - Heartbreakin Man Chords
  17. My Morning Jacket - Holy Chords
  18. My Morning Jacket - Honest Man Chords
  19. My Morning Jacket - Hopefully Chords
  20. My Morning Jacket - How Could I Know? Chords
  21. My Morning Jacket - Just Because I Do Chords
  22. My Morning Jacket - Just One Thing Chords
  23. My Morning Jacket - Knot Comes Loose Chords
  24. My Morning Jacket - The Bear Chords
  25. My Morning Jacket - The Dark Chords



cowboylyrics.com
All lyrics are property and copyright of their owners. All lyrics provided for educational purposes only.