My Morning Jacket, Gideon Tabs, Chords, Lyrics

My Morning Jacket, Gideon Tabs, Chords

 SITE MENU
 Request Tabs
 Add/Correct Tabs
 DMCA Policy
 Country Sheet Music
0

BROWSE LYRICS AND TABS BY ARTIST/BAND NAME: SEARCH HERE:
A B C D E F G H I J K L M N O P Q R S T U V W X Y Z #
 

My Morning Jacket - Gideon (Chords)


My Morning Jacket CD
My Morning Jacket Sheet music
My Morning Jacket Posters
Opening licks (No Capo):  
   G-----------13-15-----------  
   D--12-13-15-------12-13-12--  
 
   G-----------12-13-12-------- 
   D--12-13-15----------15-13--

 

Capo on 3

 

e----------------1---3----1--------------- 
B--------1---3----------------3----1------
G-----------------------------------------   x2 
D----------------------------------------- 
A----------------------------------------- 
E----3---3---3---3---3----3---3----3------
 
e----------------1---3----1--------------- 
B--------1---3----------------3----1------ 
G-----------------------------------------   x2 
D----------------------------------------- 
A----3---3---3---3---3----3---3----3------
E----------------------------------------- 
 
e----------------0---1----0--------------- 
B--------1---3----------------3----1------ 
G----------------------------------------- 
D----3---3---3---3---3----3---3----3------
A----------------------------------------- 
E----------------------------------------- 
 
e----------------0---1---0---------------- 
B--------1---3----------------3----1------ 
G-----------------------------------------   
D----------------------------------------- 
A----3---3---3---3---3---3----3----3------
E-----------------------------------------

 

e----------------1---3---1---------------- 
B--------1---3---------------3----1-------
G-----------------------------------------   x2 
D----------------------------------------- 
A----------------------------------------- 
E----3---3---3---3---3---3---3----3-------

 

 

 

G                  C  

GIDEON. WHAT HAVE YOU TOLD US AT ALL?
F                               C                                                          G

MAKE A SOUND, COME DOWN OFF THE WALL.

G                                             C
RELIGION - SHOULD APPEAL TO THE HEARTS OF THE YOUNG.
F                               C                                                       G

WHO ARE YOU? WHAT HAVE YOU BECOME?
          F            C               G

YOU ANIMAL. COME ON.

             F      C                            G
WHAT DOES THIS REMIND YOU OF?

 

G            C
TRULY. TRULY WE HAVE BECOME. 

F                                              C                                             G

HATED AND FEARED FOR SOMETHING WE DON'T WANT.

G             C
LISTEN. LISTEN. 

F                      C                                                       G

MOST OF US BELIEVE THAT THIS IS WRONG.

F                      C                     G
YOU ANIMAL. COME ON. 

F                      C                     G

WHAT DOES THIS REMIND YOU OF?
F                      C                     G

ANIMAL. COME ON. 

F                      C                     G

WHAT DOES THIS REMIND YOU OF? 

F                      C                     G

ANIMAL. COME ON.  

 

 

outro lick 
 
  e---18-16-15----------------- 
  B------------18-16-15-------- 
  G---------------------17-15--



My Morning Jacket Tabs & ChordsMy Morning Jacket Lyrics



My Morning Jacket Tabs, Tablatures, Chords, Lyrics

Buy My Morning Jacket CD
My Morning Jacket
Buy My Morning Jacket CD

  1. My Morning Jacket - Anytime Chords
  2. My Morning Jacket - At Dawn Chords
  3. My Morning Jacket - Bermuda Highway Chords
  4. My Morning Jacket - Butch Cassidy Chords
  5. My Morning Jacket - By My Car Chords
  6. My Morning Jacket - Can You See The Hard Helmet On My Head? Chords
  7. My Morning Jacket - Chills Chords
  8. My Morning Jacket - Cobra Chords
  9. My Morning Jacket - Come Closer Chords
  10. My Morning Jacket - Dancefloors Chords
  11. My Morning Jacket - Death is the Easy Way Chords
  12. My Morning Jacket - Dondante Chords
  13. My Morning Jacket - Easy Morning Rebel Chords
  14. My Morning Jacket - Evelyn is Not Real Chords
  15. My Morning Jacket - Gideon Chords
  16. My Morning Jacket - Heartbreakin Man Chords
  17. My Morning Jacket - Holy Chords
  18. My Morning Jacket - Honest Man Chords
  19. My Morning Jacket - Hopefully Chords
  20. My Morning Jacket - How Could I Know? Chords
  21. My Morning Jacket - Just Because I Do Chords
  22. My Morning Jacket - Just One Thing Chords
  23. My Morning Jacket - Knot Comes Loose Chords
  24. My Morning Jacket - The Bear Chords
  25. My Morning Jacket - The Dark Chords



cowboylyrics.com
All lyrics are property and copyright of their owners. All lyrics provided for educational purposes only.