Brad Paisley, Cliffs Of Rock City (Tab) Tabs, Chords, Lyrics

Brad Paisley, Cliffs Of Rock City (Tab) Tabs, Chords

 SITE MENU
 Request Tabs
 Add/Correct Tabs
 DMCA Policy
 Country Sheet Music
0

BROWSE LYRICS AND TABS BY ARTIST/BAND NAME: SEARCH HERE:
A B C D E F G H I J K L M N O P Q R S T U V W X Y Z #
 

Brad Paisley - Cliffs Of Rock City (Tab) (Chords)


Brad Paisley CD
Brad Paisley Sheet music
Brad Paisley Posters
E--------------------0---------------------------0-------------------------------
B----0--0--0------0-----0-------0--0--0------0---0~----9--5---4-5-4--------------
G---3-3--3--3----2-2--2--2-----3-3--3--3----2-2--2~-----6--6-------6-4-----------
D--4---4--4--4--2---2--2--2---4---4--4--4--2---2-2~-/6---6--6----------6-4-------
A--------------0--------------------------0------0~------------------------------
E-2--------------------------2---------------------------------------------------

E----------------0242----------------------------------------------0242----------
B----------------0555-5-4p2p-----9--5---4-5-4----------------------0555-5-4-2p0--
G------1-2-4bh(6)------------4----6--6--------6-4----------1-2-4/6---------------
D1-2-4-------------------------6---6--6----------6-4\1-2-4-----------------------
A--------------------------------------------------------------------------------
E--------------------------------------------------------------------------------

E-----------------------------------0-2--4-2-------------------------------------
B-9--5---4-5-4----------------------0-5--5-5-5-4p2p0---~-9\-9--12-10-9-----------
G--6--6-------6-4---------1-2-4bh(6)-------------------~-9\--9----------11~~11\--
D6--6--6---------6-4\1-2-4-----------------------------~-9\---9------------------
A--------------------------------------------------------------------------------
E-----------------------------------------------------0--------------------------

E--------------------------------------------------------------------------------
B7---10-9------------------9-9-------12-10-9---------------9~9\-9--12-10-9-------
G-8-------11-8-9~~9\--9-11-----11-9---------11~~11-9-------9~9\--9---------11~11-
D--10------------------------------------------------11-9---------9--------------
A--------------------------------------------------------------------------------
E--------------------------------------------------------0-----------------------

E--------------------------------------------------------------------------------
B7---10-9----------------------9-9--------12-10-9---------------12~10~-----------
G-8-------11-8-9~9\--9-11bh(13)----11b-9-----------11~11-9------------11/13~~11~~
D--10------------------------------------------------------11-9------------------
A--------------------------------------------------------------------------------
E--------------------------------------------------------------------------------

E-------------------------------------------------0-2--4-2-----------------------
B------------9--5---4-5-4-------------------------0-5--5-5-5-4p2p0---------------
G-11-9--------6--6--------6-4-----------1-2-4Bh(6)-------------------------------
D------11-9----6--6-----------6-4\1-2-4------------------------------------------
A--------------------------------------------------------------------------------
E--------------------------------------------------------------------------------

E-------------------------------------7-9-------9-11-11-11p9---------------------
B-9--5---4-5-4--------------4-7-----7---------9--------------12-9--5---4-5-4-----
G--6--6--------6-4---------4------8---------9--------------------6--6--------6-4-
D6--6--6-----------6-4\0--4-----9--------11--------------------6--6--6-----------
A------------------------6-------------------------------------------------------
E--------------------------------------------------------------------------------
                        [ Sweep--------------------]

E--------------------0-4-5p4p2---------------------------------------------------
B------------------------------4p0h2h4p2-----------------------9\-9--------------
G-----------1-2-4b(6)-------------------------6p4--------------9\--9-------------
D-6-4\1-2-4-------------------------------5/6-----6p4---------------9------------
A--------------------------------------------------------------------------------
E------------------------------------------------------x\---0--------------------

E--------------------------------------------------------------------------------
B12-10-9-----------7---10-9-----------------9-9------12-10-9---------------------
G--------9-11~~11\--8-------11-8-11b~9\-9-11----11-9---------11----9-------------
D--------------------10-----------------------------------------\11-11-----------
A---------------------------------------------------------------------11\9-7-----
E--------------------------------------------------------------------------------

E----------------------------------------------9-----9---------------------------
B----9--12-10-9-----------7---10-9---------------12b--12-9---9-------------------
G-9\--9-----------11~~11\--8-------11-8-11b(13)------------11—12-11-9-----------
D-9\---9--------------------10-----------------------------------------11-9------
A---------------------------------------------------------------------------10/11
E0-------------------------------------------------------------------------------

E---------------------12-11-9----------------------
B-/12\10-9--------------------12-10-9---------------
G-----------11~11-9-------------9-----11-9-11b(13)--
D------------------11-9-----------------------------
A--------------------------------------------------
E--------------------------------------------------



Solo break
E-----9--------------------------------------------------------------------------
B-------12p9--9------------------------------------------------------------------
G—11b-------11—11p9----11---9----------------------------------------------------
D-------------------11----11—11p9----11----9-------------------------6---7-6-----
A---------------------------------11----11---11/9-7--7-------0-4-2/4---4---------
E-------------------------------------------------------/x—4b--------------------


E------0---------------------4------11--------------------------------------------
B------0------------7--7---5-----/12--12---9------------------------------------
G—-6/8---6b(8)--4---8--6---6------------ 9-----11-9------------------------------
D—-6/8---6------4---------------------------9---------9---------------------------
A---------------------------------------------------9-----------------------------
E--------------------------------------------------------11-9-11------------------


E------2--------------------------------------------------------------------------
B--------5------------------------------------------------------------------------
G4b(6)-----4b(5)------------------------------------------------------------------
D---------------2-----------------------------------------------------------------
A-----------------2-0------0------0-------------------------------4b(5)4—2-0------
E---------------------3b(4)—3b(4)---2b(3)-(3)/2-0-2b(3)-(3)/2-0-2------------2b(3)




E---------------------------------------------------------------------------------
B---------------------------------------------------------------------------------
G---------------------------------------------------------------9----11p9---------
D----------------------------------------------9h11p9---9h10h11---11--------------
A--------2h4-2/4-----7h9p7---7h9/11-----7h9/11-------11---------------------------
E-0-2-4----------7/9-------9--------7h9-------------------------------------------



E----------------------------------------------------------------------16-19-19/21
B---------------------------------14-17p14------------16-18----------16-----------
G------------------------------14---------16p14-----16------------16--------------
D----------------------------14-------------------16-----------17-----------------
A—------12-------14h16p14h16--------------------18--------------------------------
E-12/14----14/16------------------------------------------------------------------




Long lead run at end of theme

E-------------------------------------------4h5p4---------------------------------
B-9--5---4-5-4-----------------------4h5h7--------7p4p0-----7p4---5p4---4---------
G--6--6-------6-4--------------4h6h7----------------------------6-----6---6p4-----
D6--6--6---------6-4-----4h6h7--------------------------6---------------------6---
A--------------------6h7----------------------------------------------------------
E---------------------------------------------------------------------------------


E----------------------------------------------------------------------------9-11-
B-------------------9-----5-----4-5-4----------------------5-7----------9h12------
G-6p4-----------------6-----6---------6-4--------------4-----------9h11-----------
D-----6p4--------6-----6-----6------------6/4----4---6---6-----9/11---------------
A----------6p4-------------------------------------4------------------------------
E----------------------------------------------7------------------------





Alternative riff….
E-----------------------------------0-0-0---0-etc....-----------------------------
B-9--5---4-5-4----------------------0-7-7/9-7-------------------------------------
G--6--6-------6-4---------1-2-4bh(6)----------------------------------------------
D6--6--6---------6-4\1-2-4--------------------------------------------------------
A---------------------------------------------------------------------------------
E---------------------------------------------------------------------------------


Paisley Brad Tabs & ChordsPaisley Brad Lyrics



Paisley Brad Tabs, Tablatures, Chords, Lyrics

Buy Paisley Brad CD
Paisley Brad
Buy Paisley Brad CD

  1. Paisley Brad - 364 Days To Go Chords
  2. Paisley Brad - A Man Don't Have To Die Chords
  3. Paisley Brad - Accidental Racist Chords
  4. Paisley Brad - Ain't Nothin' Like Chords
  5. Paisley Brad - Alcohol Chords
  6. Paisley Brad - All I Wanted Was a Car Chords
  7. Paisley Brad - All You Really Need Is Love Chords
  8. Paisley Brad - American Saturday Night Chords
  9. Paisley Brad - Anything Like Me Chords
  10. Paisley Brad - Away In A Manger Chords
  11. Paisley Brad - Be The Lake Chords
  12. Paisley Brad - Beat This Summer Tabs
  13. Paisley Brad - Behind The Clouds Chords
  14. Paisley Brad - Better Than This Chords
  15. Paisley Brad - Bigger Fish To Fry (intro) Tabs
  16. Paisley Brad - Born On Christmas Day Chords
  17. Paisley Brad - Brad Noodling Away Tabs
  18. Paisley Brad - Brad Noodling Away(part 2) Tabs
  19. Paisley Brad - Breakfast With You Chords
  20. Paisley Brad - Camoflage Chords
  21. Paisley Brad - Camouflage Tabs
  22. Paisley Brad - Catch All The Fish Chords
  23. Paisley Brad - Catch All The Fish (last Lick F To E) Tabs
  24. Paisley Brad - Celebrity Chords
  25. Paisley Brad - Cliffs Of Rock City (Tab) Chords
  26. Paisley Brad - Cloud Of Dust Chords
  27. Paisley Brad - Cluster Pluck (intro) Tabs
  28. Paisley Brad - Cluster Pluck (solos Part 1) Tabs
  29. Paisley Brad - Come Back To Bed(1st Solo) Tabs
  30. Paisley Brad - Come Back To Bed(crossroads 2nd Solo) Tabs
  31. Paisley Brad - Come On In Chords
  32. Paisley Brad - Come On Over Tonight Chords
  33. Paisley Brad - Cornography Tabs
  34. Paisley Brad - Country Nation Chords
  35. Paisley Brad - Depature Tabs
  36. Paisley Brad - Don't Drink The Water Chords
  37. Paisley Brad - Dont Breathe Chords
  38. Paisley Brad - Easy Money Chords
  39. Paisley Brad - Everybody's Here Chords
  40. Paisley Brad - Famous People Chords
  41. Paisley Brad - Farther Along Chords
  42. Paisley Brad - Find Yourself Chords
  43. Paisley Brad - Flowers Chords
  44. Paisley Brad - Hard Life (no Capo) Chords
  45. Paisley Brad - Hard To Be A Husband Wife Chords
  46. Paisley Brad - Harvey Bodine Chords
  47. Paisley Brad - He Didn't Have To Be 2 Chords
  48. Paisley Brad - He Didnt Have To Be Chords
  49. Paisley Brad - High Life Chords
  50. Paisley Brad - Hold Me In Your Arms Chords
  51. Paisley Brad - Holdin On To You Chords
  52. Paisley Brad - Huckleberry Jam Tabs
  53. Paisley Brad - I Can't Change The World Chords
  54. Paisley Brad - I Hope That's Me Chords
  55. Paisley Brad - I Wish Youd Stay Chords
  56. Paisley Brad - I'll Be Home For Christmas Chords
  57. Paisley Brad - I'll Take You Back Chords
  58. Paisley Brad - I'm Still A Guy Chords
  59. Paisley Brad - If Love Was A Plane Chords
  60. Paisley Brad - Im Gonna Miss Her Chords
  61. Paisley Brad - Im Gonna Miss Her 2 Chords
  62. Paisley Brad - Im Gonna Miss Her 3 Chords
  63. Paisley Brad - Im Gonna Miss Her 4 Chords
  64. Paisley Brad - Im Gonna Miss Her 5 Chords
  65. Paisley Brad - In The Garden Chords
  66. Paisley Brad - Is It Raining At Your House Chords
  67. Paisley Brad - It Did Chords
  68. Paisley Brad - It Never Woulda Worked Out Anyway Tabs
  69. Paisley Brad - Ive Been Better Chords
  70. Paisley Brad - Karate Chords
  71. Paisley Brad - Kentucky Jelly Tabs
  72. Paisley Brad - Kung Pao Buckaroo Holiday Chords
  73. Paisley Brad - Les Is More Chords
  74. Paisley Brad - Let The Good Times Roll Chords
  75. Paisley Brad - Letter To Me Chords
  76. Paisley Brad - Life's Highway To Heaven Chords
  77. Paisley Brad - Little Moments Chords
  78. Paisley Brad - Long Sermon Chords
  79. Paisley Brad - Love Her Like She's Leavin' Chords
  80. Paisley Brad - Love Is Never Ending Chords
  81. Paisley Brad - Make A Mistake Chords
  82. Paisley Brad - Me Neither Chords
  83. Paisley Brad - Moonshine In The Trunk Chords
  84. Paisley Brad - More Than Just This Song Chords
  85. Paisley Brad - Mr. Policeman Chords
  86. Paisley Brad - Mud On The Tires Chords
  87. Paisley Brad - Munster Rag Tabs
  88. Paisley Brad - Never Leave Harlan Alive Chords
  89. Paisley Brad - New Again Chords
  90. Paisley Brad - New Again (with Sara Evans) Chords
  91. Paisley Brad - New Favorite Memory Chords
  92. Paisley Brad - Ode De Toilet Tabs
  93. Paisley Brad - Officially Alive Chords
  94. Paisley Brad - Oh Love Chords
  95. Paisley Brad - Oh Love (correct) Chords
  96. Paisley Brad - Oh Love (feat. Carrie Underwood) Chords
  97. Paisley Brad - Oh Yeah, You're Gone Chords
  98. Paisley Brad - Old Alabama Chords
  99. Paisley Brad - One Night In Las Vegas Chords
  100. Paisley Brad - One Of Those Lives Chords
  101. Paisley Brad - Online Chords
  102. Paisley Brad - Out In The Parkin Lot Chords
  103. Paisley Brad - Part Two Chords
  104. Paisley Brad - Rainin You Chords
  105. Paisley Brad - Rainin' You (no Capo) Chords
  106. Paisley Brad - Real (with William Shatner) Chords
  107. Paisley Brad - Remind Me Chords
  108. Paisley Brad - River Bank Chords
  109. Paisley Brad - River Bank Intro Chords
  110. Paisley Brad - Santa Looked Like Daddy Chords
  111. Paisley Brad - Sharp Dressed Man Chords
  112. Paisley Brad - She's Everything Chords
  113. Paisley Brad - She's Her Own Woman Chords
  114. Paisley Brad - Sleepin On The Foldout Chords
  115. Paisley Brad - Some Mistakes Chords
  116. Paisley Brad - Some Mistakes 2 Chords
  117. Paisley Brad - Somebody Knows You Now Chords
  118. Paisley Brad - Something About Her Chords
  119. Paisley Brad - Something About Her (live Acoustic) Chords
  120. Paisley Brad - Southern Comfort Zone Chords
  121. Paisley Brad - Spaghetti Western Swing Tabs
  122. Paisley Brad - Spaghetti Western Swing (part 1) Tabs
  123. Paisley Brad - Start A Band Chords
  124. Paisley Brad - Stingray Clip 1 Tabs
  125. Paisley Brad - Stingray Clip 2 Tabs
  126. Paisley Brad - That's Love Chords
  127. Paisley Brad - The Best Thing That I Had Goin' Chords
  128. Paisley Brad - The Cigar Song Chords
  129. Paisley Brad - The Nervous Breakdown (acoustic Corrected) Tabs
  130. Paisley Brad - The Nervous Breakdown (acoustic) Tabs
  131. Paisley Brad - The Old Rugged Cross Chords
  132. Paisley Brad - The Pants Chords
  133. Paisley Brad - The World Chords
  134. Paisley Brad - Then Chords
  135. Paisley Brad - Then (solo) Tabs
  136. Paisley Brad - This Is Country Music Chords
  137. Paisley Brad - Those Crazy Christians Chords
  138. Paisley Brad - Throttleneck (part 1) Tabs
  139. Paisley Brad - Throttleneck (part 2) Tabs
  140. Paisley Brad - Ticks Chords
  141. Paisley Brad - Ticks Outro Solo Tabs
  142. Paisley Brad - Time Well Wasted Chords
  143. Paisley Brad - Tin Can On A String Chords
  144. Paisley Brad - Toilet Seat Chords
  145. Paisley Brad - Too Country Chords
  146. Paisley Brad - Toothbrush Chords
  147. Paisley Brad - Turf's Up Tabs
  148. Paisley Brad - Two Feet Of Topsoil Chords
  149. Paisley Brad - Two People Fell In Love Chords
  150. Paisley Brad - Two People Fell In Love 2 Chords
  151. Paisley Brad - Ukelele Boy Chords
  152. Paisley Brad - Waitin On A Woman Chords Chords
  153. Paisley Brad - Water Chords
  154. Paisley Brad - Water (Capo 3) Chords
  155. Paisley Brad - Water (solo) Tabs
  156. Paisley Brad - We Danced Chords
  157. Paisley Brad - Welcome To The Future Chords
  158. Paisley Brad - When I Get Where I'm Going Chords
  159. Paisley Brad - Whiskey Lullaby Chords
  160. Paisley Brad - Whiskey Lullaby v2 Chords
  161. Paisley Brad - Who Needs Pictures Chords
  162. Paisley Brad - Who's Gonna Fill Their Shoes Chords
  163. Paisley Brad - Why Georgia Chords
  164. Paisley Brad - Why Georgia (acoustic) Tabs
  165. Paisley Brad - With You, Without You Chords
  166. Paisley Brad - Working On A Tan Chords
  167. Paisley Brad - World Chords
  168. Paisley Brad - Wrapped Around Chords
  169. Paisley Brad - Yes, You Will Chords
  170. Paisley Brad - Yes, You Will Tabs
  171. Paisley Brad - You Do The Math Chords
  172. Paisley Brad - You Do The Math (Capo 2) Chords
  173. Paisley Brad - You Have That Effect On Me Chords
  174. Paisley Brad - You Need A Man Around Here Chords
  175. Paisley Brad - You'll Never Leave Harlan Alive Chords



cowboylyrics.com
All lyrics are property and copyright of their owners. All lyrics provided for educational purposes only.