Bruce Robison, Every Once In A While Tabs, Chords, Lyrics

Bruce Robison, Every Once In A While Tabs, Chords

 SITE MENU
 Request Tabs
 Add/Correct Tabs
 DMCA Policy
 Country Sheet Music
0

BROWSE LYRICS AND TABS BY ARTIST/BAND NAME: SEARCH HERE:
A B C D E F G H I J K L M N O P Q R S T U V W X Y Z #
 

Bruce Robison - Every Once In A While (Chords)


Bruce Robison CD
Bruce Robison Sheet music
Bruce Robison Posters
Bruce Robison - Every Once In a While

Capo 4

   C            G                F       G      C      Strum
-------------0-------------------1---0------------------------
--1---1---------3---3--1p0----0-------1--3----0--1----1-----1-
----0---0--0--0---0--0-----0-----2------(4)-0-------0--0---0--
---2---2--2-2----0--------0----0---3---3---0---0---2-2----2---
--3------3------------------------3--------------3-------3----
----------------3------3-----3---1---1---3---3----------------

                  C
Every once in a while
             G
I think about you
         Am           
And your strawberry hair
            F                G
The little things we used to do


I even called your old number
But it wasn't the same
Some strangers voice
On the answering machine


Chorus:
        Am
But the feelings remain,
       G
After all this time
              Am
And those old memories won't fade,
          G
From the back of my mind


When I hear and old song
Then I'm with you again
In that one room apartment
We had time and we had plans

But plans fall through
And dreams run dry
They just slowly dissapear
Like a deardrop from your eye


Chorus


Bridge:
                  G     
I don't know if I love you
           F
Only think of you
G          C
Once in a while


Instrumental (Verse 2x)


Chorus


Every once in a while
I could see you cry
And I'm saying I'm not ??
But I can't say why

I hear you got married
And had a beautiful child
And I only think about you
F    G     C     reapeat versepattern and fade
Once in a while


An idea of the picking used:

Verse:
  C                G               Am               F      G
--------------------------------------------------------------------
------1--------1--(0)--1--0----0--------1-------1-------1--0---0----
----0---0---0----0---0-------0--------2---2---2---2---2------0----0-
---2---2---2-2--2---0-0-0---0-0--0---2-2-2---2---2---3-3-3--0-0--0--
--3--3---3-------------------------0-------0------------------------
-------------------3------3--------------------0----1------3--------

Chorus:
 Am        G            Am         G
------0----------------------0---------------
-----1---1------0-3---3-----1----1-----1-0---
-2-2----2--0--0------0--2-2-----2--0-0-------
--2----2-----0------0----2-----2----0--------
-0----------------------0--------------------
-----------3-----------------------3---------

Bridge:
  G             F    G    C  (F)  Strum
-------------------------------1---------
------0------0-----1----0------------1---
----0-------0-----2----0----0---0---0----
---0-0---0h2-----3----0----2--3----2-----
--------------------------3-------3------
--3-----3-------1----3-------------------


Robison Bruce Tabs & ChordsRobison Bruce Lyrics



Robison Bruce Tabs, Tablatures, Chords, Lyrics

Buy Robison Bruce CD
Robison Bruce
Buy Robison Bruce CD

  1. Robison Bruce - All Over But The Cryin' Chords
  2. Robison Bruce - Angry All The Time Chords
  3. Robison Bruce - Anymore Good Loving Chords
  4. Robison Bruce - Anyone But Me Chords
  5. Robison Bruce - Bad Girl Blues Chords
  6. Robison Bruce - Bed Of Ashes Chords
  7. Robison Bruce - Blame It On Me Chords
  8. Robison Bruce - Desperately Chords
  9. Robison Bruce - Don't Call It Love Chords
  10. Robison Bruce - Don't You Ever Call My Name Chords
  11. Robison Bruce - Drivin All Night Long Chords
  12. Robison Bruce - End Like That Chords
  13. Robison Bruce - Every Once In A While Chords
  14. Robison Bruce - First Thing About Mary Chords
  15. Robison Bruce - Friendless Marriage Chords
  16. Robison Bruce - Go To Your Heart Chords
  17. Robison Bruce - Heartache To Houston Chords
  18. Robison Bruce - House Of Man Chords
  19. Robison Bruce - I Dream Too Chords
  20. Robison Bruce - I Never Fly Chords
  21. Robison Bruce - Its Gonna Be Easy Chords
  22. Robison Bruce - Just Married Chords
  23. Robison Bruce - Larosse Chords
  24. Robison Bruce - Lifeline Chords
  25. Robison Bruce - Lonely Too Chords
  26. Robison Bruce - Long Way Home Chords
  27. Robison Bruce - Love You, Want You, Need You Chords
  28. Robison Bruce - Match Made In Heaven Chords
  29. Robison Bruce - My Brother And Me Chords
  30. Robison Bruce - Not Forgotten You Chords
  31. Robison Bruce - Please, Daddy, Don't Get Drunk This Christmas Chords
  32. Robison Bruce - Rayne Louisiana Chords
  33. Robison Bruce - Rayne, Louisiana Tabs
  34. Robison Bruce - See You Around Chords
  35. Robison Bruce - Sixteen Chords
  36. Robison Bruce - So Long See You Around Chords
  37. Robison Bruce - Take It All Out On You Chords
  38. Robison Bruce - The Good Life Chords
  39. Robison Bruce - Tonight Chords
  40. Robison Bruce - Travellin Soldier Chords
  41. Robison Bruce - Trouble Chords
  42. Robison Bruce - Virgina Chords
  43. Robison Bruce - What Did You Think Chords
  44. Robison Bruce - When I Loved You Chords
  45. Robison Bruce - Wrapped Chords
  46. Robison Bruce - You Cant Get There Chords



cowboylyrics.com
All lyrics are property and copyright of their owners. All lyrics provided for educational purposes only.