Road Hammers, Overdrive Tabs, Chords, Lyrics

Road Hammers, Overdrive Tabs, Chords

 SITE MENU
 Request Tabs
 Add/Correct Tabs
 DMCA Policy
 Country Sheet Music
0

BROWSE LYRICS AND TABS BY ARTIST/BAND NAME: SEARCH HERE:
A B C D E F G H I J K L M N O P Q R S T U V W X Y Z #
 

Road Hammers - Overdrive (Chords)


Road Hammers CD
Road Hammers Sheet music
Road Hammers Posters
Pon  = pull on
poff = pull off

E
I got eighteen wheels and a polished rig, 

I'm in a big ol' hurry, and I do mean big
           A
Gotta get this load to bikini town
           E
Before the sun comes up and they shut me down
D  A  E
O, O, Overdrive


E
Got stopped by the man at a seagul scale

Sidetracked by the waitress at a steak & ale
     A
Got waylaid, all day, traffic jam
     E                  
Just south of the border down in alabam
D  A  E
O, O, Overdrive

(chorus)
D A E              D        A         E
Overdrive, i gotta roll on just to survive
          D     A       E
The only time i feel alive

Is when i kick it into
G  A      E
O, O, Overdrive

My mama said when I was born I was born on the run
My daddy was a truck driving son of a gun
Got a highway song running through my brains
Got diesel oil pumping through my veins
O, O, Overdive

(to chorus)

SOLO
|------------------------------------------------------------------------------------------------------|
|-10-10-10-10-12-10-8---7-7-7-7---7pon8poff7--10-10-10-10-12-10-8---8-8-7-7----------------------------|
|---------------------9---------9-----------9---------------------9--------9-9-7-7---------------------|
|----------------------------------------------------------------------------------11-11-9-9-7-7-5-5-2-|
|------------------------------------------------------------------------------------------------------|
|------------------------------------------------------------------------------------------------------|

(to chorus)

I had a dream last night i was standing still
I woke up, broke out sweating to chill
When the white line stops they better lay me down
In a cab over coffin in a new hard ground
O, O, Overdrive

(finishing chorus)
Overdrive, i gotta roll on just to survive
The only time i feel alive
Is when i kick it into
O, O, Overdrive
I kick into 
G  A  C  D  E
O, O, O, O, Overdrive

|-------------------------------|
|-------------------------------|
|---9---9-9-7-9--9-9-9-9-9-7----|
|-/9-----------/9------------9--|
|-------------------------------|
|-------------------------------|


|--------------------------------------------------------|
|--------------8-7------------------------8-7------------|
|--7-9--7-9--7----9-7-9-7-----7-9--7-9--7-----9-7-9-7----|
|-9----9----9-------------5~-9----9----9--------------5~-|
|--------------------------------------------------------|
|--------------------------------------------------------|


The Road Hammers Tabs & ChordsThe Road Hammers Lyrics



The Road Hammers Tabs, Tablatures, Chords, Lyrics

Buy The Road Hammers CD
The Road Hammers
Buy The Road Hammers CD

  1. The Road Hammers - Eastbound And Down Chords
  2. The Road Hammers - Girl On The Billboard Chords
  3. The Road Hammers - I Don't Know When To Quit Chords
  4. The Road Hammers - I'm A Road Hammer 1 Chords
  5. The Road Hammers - I'm A Road Hammer2 Chords
  6. The Road Hammers - Overdrive Chords
  7. The Road Hammers - Willin' Chords
  8. The Road Hammers - Willin' 2 Chords



cowboylyrics.com
All lyrics are property and copyright of their owners. All lyrics provided for educational purposes only.