Road Hammers, Willin' 2 Tabs, Chords, Lyrics

Road Hammers, Willin' 2 Tabs, Chords

 SITE MENU
 Request Tabs
 Add/Correct Tabs
 DMCA Policy
 Country Sheet Music
0

BROWSE LYRICS AND TABS BY ARTIST/BAND NAME: SEARCH HERE:
A B C D E F G H I J K L M N O P Q R S T U V W X Y Z #
 

Road Hammers - Willin' 2 (Chords)


Road Hammers CD
Road Hammers Sheet music
Road Hammers Posters
The Road Hammers
\ = slide back
/ = slide forward
> = bend

|--12ó15ó12ó10-------------12--12-10------------------------------7\5-3-|
|--------------12ó10ó8s7---12-------12-10-8---8------------8------7\5-0-|
|-------------------------------------------9----9ó7ó5---7---7-9--7\5-0-|
|------------------------------------------------------9--------------0-|
|---------------------------------------------------------------------2-|
|---------------------------------------------------------------------3-|


G 
Iíve been worked by the rain
D
Driven by the snow
Em                     C
Beat down and dirty, and donít you know
           G  C Bm  Am G
That Iím still               williní

G
Out on the road
D
Late last night
Em                        C
I Saw my pretty Alice in every headlight
      G     C Bm Am  G
My Alice            My dallas alice


(chorus) (On 3rd chorus pause after D,Dsus, D)
C                                 D
And Iíve been from Tucson to Tucumcari 
              G                                   
Tehachapi to Tonapa
           (G walkdown)                           C
Iíve driven every kind of rig thatís ever been made
                                                   D, Dsus, D
Iíve even driven the back roads so I wouldnít get weighed

And if you give me 
C          Bm   Am   G
Weed, whites and wine
                          D       
And you show me a sign
                  G   C, Cadd9  G
Wel Iíll be williní              to be moviní

G
Iíve been kicked by the wind
D
Robbed by the sleet
Em                        C
Had my head stoved in and Iím still on my feet
       G    Bm Am G
And still             williní


G                                 D
I smuggled some smokes and folks from Mexico
Em
Baked by the sun
C                             G   C, Bm Am G
Every time I would go to Mexico         Oooooooo

(chorus)

part 1
|---------------------------------------------12-10-------------------------------------------|
|--8-8-8-12\8-8-10>-10--------7-8-7--------/12------12-10-10-8--10>-8---8-10-12-10-8-10-10-8-8|
|---------------------9>-9-7-9------9-7--7---------------------9-------9----------------------|
|---------------------------------------9-----------------------------------------------------|
|---------------------------------------------------------------------------------------------|
|---------------------------------------------------------------------------------------------|

part 2
|-------------------12----------------------------------------------------|
|-12-12-10-8-10---8----12--8--8--10>-10-8--8-8-12-10-8------------------8-|
|---------------9------------9------------9------------9-7------------7---|
|---------------------------------------------------------9-7-5--5-7-9----|
|---------------------------------------------------------------7---------|
|-------------------------------------------------------------------------|


(chorus)

[Thanks to Steveb for tabs]


The Road Hammers Tabs & ChordsThe Road Hammers Lyrics



The Road Hammers Tabs, Tablatures, Chords, Lyrics

Buy The Road Hammers CD
The Road Hammers
Buy The Road Hammers CD

  1. The Road Hammers - Eastbound And Down Chords
  2. The Road Hammers - Girl On The Billboard Chords
  3. The Road Hammers - I Don't Know When To Quit Chords
  4. The Road Hammers - I'm A Road Hammer 1 Chords
  5. The Road Hammers - I'm A Road Hammer2 Chords
  6. The Road Hammers - Overdrive Chords
  7. The Road Hammers - Willin' Chords
  8. The Road Hammers - Willin' 2 Chords



cowboylyrics.com
All lyrics are property and copyright of their owners. All lyrics provided for educational purposes only.