Cowboy Lyrics and Chords Country Lyrics, Chords and Tabs Source #1 - CowboyLyrics.com
 MENU
  Request Lyrics
  Add/Correct Lyrics
  Links Page
  Contact Us
  Privacy Policy
  DMCA Policy
 MERCHANDISE
  Country CDs
  Country Sheet Music


BROWSE LYRICS AND TABS BY ARTIST/BAND NAME: SEARCH:
A B C D E F G H I J K L M N O P Q R S T U V W X Y Z #
 

Bleeding White chords - The Avett Brothers

Click to play this song!
The Avett Brothers Sheet music
[Intro]
 
e|---------------------------------------------------------------------------------|
B|---------------------------------------------------------------------------------|
G|---------------------------------------------------------------------------------|
D|---------0-----------------------------------------------------------------------| X2
A|-----------2---------------------------------------------------------------------|
E|-0-0h3h5-----3-------------------------------------------------------------------|
PM * * * * * * *
 
e|-7-7--8--8--8---3-3--7-7-7--7-7--8--8--8---3-------------------------------------|
B|-8-8--8--8--8---3-3--7-7-7--8-8--8--8--8---3-------------------------------------|
G|-9-9--9--9--9---4-4--7-7-7--9-9--9--9--9---4-------------------------------------|
D|-9-9--10-10-10--5-5--9-9-9--9-9--10-10-10--5----------0--------------------------| X2
A|-7-7--10-10-10--5-5--9-9-9--7-7--10-10-10--5------------2------------------------|
E|------8--8--8---3-3--7-7-7-------8--8--8---3--0-0h3h5-----3----------------------|
 
 
[Verse 1]
 
e|----------------------------------------------------------------7-7--------------|
B|----------------------------------------------------------------8-8--------------|
G|-9-9---5-------4/9-9\--5-------4/9-9\--5-------4/9-9--5-------4/9-9--------------|
D|-x-x---x-5-5\--x-x-x---x-5-5\--x-x-x---x-5-5\--x-x-x--x-5-5\--x-9-9--------------|
A|-7-7\--3-x-x---2/7-7\--3-x-x---2/7-7\--3-x-x---2/7-7--3-x-x---2/7-7--------------|
E|---------3-3\------------3-3\------------3-3\-----------3-3\---------------------|
 
 
[Chorus]
 
e|---------------------------------------------------------------------------------|
B|-1-1-1--1-1--1-1-1--1-1--5-5-5--5-5--5-5-7-7-------------------------------------|
G|-2-2-2--2-2--2-2-2--2-2--5-5-5--5-5--5-5-7-7-------------------------------------|
D|-2-2-2--2-2--2-2-2--2-2--5-5-5--5-5--5-5-7-7-------------------------------------|
A|-0-0-0--0-0--0-0-0--0-0--3-3-3--3-3--3-3-5-5-------------------------------------|
E|---------------------------------------------------------------------------------|
 
 
[Intro]
 
e|-7-7--8--8--8---3-3--7-7-7--7-7--8--8--8---3-------------------------------------|
B|-8-8--8--8--8---3-3--7-7-7--8-8--8--8--8---3-------------------------------------|
G|-9-9--9--9--9---4-4--7-7-7--9-9--9--9--9---4-------------------------------------|
D|-9-9--10-10-10--5-5--9-9-9--9-9--10-10-10--5----------0--------------------------|
A|-7-7--10-10-10--5-5--9-9-9--7-7--10-10-10--5------------2------------------------|
E|------8--8--8---3-3--7-7-7-------8--8--8---3--0-0h3h5-----3----------------------|
 
 
[Verse 2]
 
e|----------------------------------------------------------------7-7--------------|
B|----------------------------------------------------------------8-8--------------|
G|-9-9---5-------4/9-9\--5-------4/9-9\--5-------4/9-9--5-------4/9-9--------------|
D|-x-x---x-5-5\--x-x-x---x-5-5\--x-x-x---x-5-5\--x-x-x--x-5-5\--x-9-9--------------|
A|-7-7\--3-x-x---2/7-7\--3-x-x---2/7-7\--3-x-x---2/7-7--3-x-x---2/7-7--------------|
E|---------3-3\------------3-3\------------3-3\-----------3-3\---------------------|
 
 
[Chorus]
 
e|---------------------------------------------------------------------------------|
B|-1-1-1--1-1--1-1-1--1-1--5-5-5--5-5--5-5-7-7--5~---------------------------------|
G|-2-2-2--2-2--2-2-2--2-2--5-5-5--5-5--5-5-7-7--5~---------------------------------|
D|-2-2-2--2-2--2-2-2--2-2--5-5-5--5-5--5-5-7-7--5~---------------------------------|
A|-0-0-0--0-0--0-0-0--0-0--3-3-3--3-3--3-3-5-5--3~---------------------------------|
E|---------------------------------------------------------------------------------|
 
 
[Bridge]
 
   Chords played during piano part
e|-------3--------3----------------------------------------------------------------|
B|-5--7--3--5--7--3--1--7--5--1--7-------------------------------------------------|
G|-5--7--4--5--7--4--2--7--5--2--7-------------------------------------------------|
D|-5--7--5--5--7--5--2--7--5--2--7-------------------------------------------------|
A|-3--5--5--3--5--5--0--5--3--0--5-------------------------------------------------|
E|-------3--------3----------------------------------------------------------------|
 
   Followed by this riff
e|----------|------------------------------|---------------------------------------|
B|----------|------------------------------|---------------------------------------|
G|----------|------------------------------|---------------------------------------|
D|-------0--|-X4--------------------0-0-0--|-X3------------------------------------|
A|-0-2-3----|-----0-0-0-2-2-2-3-3-3--------|-----0---------------------------------|
E|----------|------------------------------|---------------------------------------|
PM * * * *        * * * * * * * * * * * *
 
 
[Solo]
 
[Guitar 1]
 
e|---------------------------/17~~-------------------------------------------------|
B|-/17~~~--------------------------------------------------------------------------|
G|---------------------------------------------------------------------------------|
D|---------------------------------------------------------------------------------|
A|---------------------------------------------------------------------------------|
E|---------------------------------------------------------------------------------|
 
e|-10-10-10h12-10~--7-7-7/b10-7-7~------------------------------------------17b19~-|
B|---------------------------------8-7-8-7---7-----------7-10-10/12~-12/15~--------|
G|-----------------------------------------9---9-7-7-7/9---------------------------|
D|---------------------------------------------------------------------------------|
A|---------------------------------------------------------------------------------|
E|---------------------------------------------------------------------------------|
 
 
[Guitar 2]
 
e|-7-7--8--8--8---3-3--7-7-7--7-7--8--8--8---3-------------------------------------|
B|-8-8--8--8--8---3-3--7-7-7--8-8--8--8--8---3-------------------------------------|
G|-9-9--9--9--9---4-4--7-7-7--9-9--9--9--9---4-------------------------------------|
D|-9-9--10-10-10--5-5--9-9-9--9-9--10-10-10--5----------0--------------------------|
A|-7-7--10-10-10--5-5--9-9-9--7-7--10-10-10--5------------2------------------------|
E|------8--8--8---3-3--7-7-7-------8--8--8---3--0-0h3h5-----3----------------------|
 
e|-7-7--8--8--8---3-3--7-7-7--7-7--8--8--8---3-3-----------------------------------|
B|-8-8--8--8--8---3-3--7-7-7--8-8--8--8--8---3-3-----------------------------------|
G|-9-9--9--9--9---4-4--7-7-7--9-9--9--9--9---4-4-----------------------------------|
D|-9-9--10-10-10--5-5--9-9-9--9-9--10-10-10--5-5-----------------------------------|
A|-7-7--10-10-10--5-5--9-9-9--7-7--10-10-10--5-5-----------------------------------|
E|------8--8--8---3-3--7-7-7-------8--8--8---3-3-----------------------------------|
 
 
[Verse 3]
 
e|-7-7--8--8--8---3-3--7-7-7--|-----7-7--------------------------------------------|
B|-8-8--8--8--8---3-3--7-7-7--|-----8-8--------------------------------------------|
G|-9-9--9--9--9---4-4--7-7-7--|-----9-9--------------------------------------------|
D|-9-9--10-10-10--5-5--9-9-9--|-X4--9-9--------------------------------------------|
A|-7-7--10-10-10--5-5--9-9-9--|-----7-7--------------------------------------------|
E|------8--8--8---3-3--7-7-7--|----------------------------------------------------|
 
 
[Chorus]
 
e|---------------------------------------------------------------------------------|
B|-1-1-1--1-1--1-1-1--1-1--5-5-5--5-5--5-5-7-7-------------------------------------|
G|-2-2-2--2-2--2-2-2--2-2--5-5-5--5-5--5-5-7-7-------------------------------------|
D|-2-2-2--2-2--2-2-2--2-2--5-5-5--5-5--5-5-7-7-------------------------------------|
A|-0-0-0--0-0--0-0-0--0-0--3-3-3--3-3--3-3-5-5-------------------------------------|
E|---------------------------------------------------------------------------------|
 
 
[Outro]
 
[Guitar 1]
 
e|-7--7-7--8---8--8---3--3-3--7--7-7--7--7-7--8---8--8---3--3-3--7-----------------|
B|-8--8-8--8---8--8---3--3-3--7--7-7--8--8-8--8---8--8---3--3-3--7-----------------|
G|-9--9-9--9---9--9---4--4-4--7--7-7--9--9-9--9---9--9---4--4-4--7-----------------|
D|-9--9-9--10--10-10--5--5-5--9--9-9--9--9-9--10--10-10--5--5-5--9-----------------|
A|-7--7-7--10--10-10--5--5-5--9--9-9--7--7-7--10--10-10--5--5-5--9-----------------|
E|---------8---8--8---3--3-3--7--7-7----------8---8--8---3--3-3--7-----------------|
 
e|-7--7-7--8---8--8---3--3-3--7--7-7--7--7-7--8---8--8---3-3-3-3-3-3--7-7-7-7-7-7--|
B|-8--8-8--8---8--8---3--3-3--7--7-7--8--8-8--8---8--8---3-3-3-3-3-3--7-7-7-7-7-7--|
G|-9--9-9--9---9--9---4--4-4--7--7-7--9--9-9--9---9--9---4-4-4-4-4-4--7-7-7-7-7-7--|
D|-9--9-9--10--10-10--5--5-5--9--9-9--9--9-9--10--10-10--5-5-5-5-5-5--9-9-9-9-9-9--|
A|-7--7-7--10--10-10--5--5-5--9--9-9--7--7-7--10--10-10--5-5-5-5-5-5--9-9-9-9-9-9--|
E|---------8---8--8---3--3-3--7--7-7----------8---8--8---3-3-3-3-3-3--7-7-7-7-7-7--|
 
e|-7----8-----7----5----7~---------------------------------------------------------|
B|-8----8-----7----5----8~---------------------------------------------------------|
G|-9----9-----7----5----9~---------------------------------------------------------|
D|-9----10----9----7----9~---------------------------------------------------------|
A|-7----10----9----7----7~---------------------------------------------------------|
E|------8-----7----5---------------------------------------------------------------|
 
 
[Guitar 2]
 
e|---------------------------------------------------------------------------------|
B|---------------------------------------------------------------------------------|
G|-9-9-9-9/12--12-12-12/14--14-14-14/16--------------------------------------------| X2
D|---------------------------------------------------------------------------------|
A|---------------------------------------------------------------------------------|
E|---------------------------------------------------------------------------------|
 
e|---------------------------------------------------------------------------------|
B|-12-12-12-12/15--15-15-15\10--10-10-10/12-12-------------------------------------|
G|---------------------------------------------------------------------------------| X2
D|---------------------------------------------------------------------------------|
A|---------------------------------------------------------------------------------|
E|---------------------------------------------------------------------------------|
 
e|---------------------------------------------------------------------------------|
B|---------------------------------------------------------------------------------|
G|-9~-----------------------9~-----------------------------------------------------|
D|-------10~----9~----7~-----------------------------------------------------------|
A|---------------------------------------------------------------------------------|
E|---------------------------------------------------------------------------------|
            



The Avett Brothers ChordsThe Avett Brothers Lyrics



Avett Brothers Tabs, Tablatures, Chords, Lyrics

Buy Avett Brothers CD
Avett Brothers

  1. Avett Brothers - 40 East Chords
  2. Avett Brothers - A Change Is Gonna Come Chords
  3. Avett Brothers - A Fathers First Spring Chords
  4. Avett Brothers - A Gift For Melody Anne Chords
  5. Avett Brothers - A Lot Of Moving Chords
  6. Avett Brothers - A Lover Like You Chords
  7. Avett Brothers - A Slight Figure Of Speech Chords
  8. Avett Brothers - All My Mistakes Chords
  9. Avett Brothers - And It Spread Chords
  10. Avett Brothers - At The Beach Chords
  11. Avett Brothers - Back Into The Light Chords
  12. Avett Brothers - Bang Bang Chords
  13. Avett Brothers - Bella Donna Chords
  14. Avett Brothers - Better Here Chords
  15. Avett Brothers - Black, Blue Chords
  16. Avett Brothers - Bleeding White Chords
  17. Avett Brothers - Die Die Die Chords
  18. Avett Brothers - Divorce Separation Blues Chords
  19. Avett Brothers - Do You Love Him Chords
  20. Avett Brothers - Fisher Road To Hollywood Chords
  21. Avett Brothers - High Steppin Chords
  22. Avett Brothers - I And Love And You Chords
  23. Avett Brothers - I Go To My Heart Chords
  24. Avett Brothers - I Killed Sally's Lover Chords
  25. Avett Brothers - I Shouldve Spent The Day With My Family Chords
  26. Avett Brothers - I Wish I Was Chords
  27. Avett Brothers - Its Raining Today Chords
  28. Avett Brothers - January Wedding Chords
  29. Avett Brothers - Live And Die Chords
  30. Avett Brothers - Living Of Love Chords
  31. Avett Brothers - Locked Up Chords
  32. Avett Brothers - Long Story Short Chords
  33. Avett Brothers - Love Like The Movies Chords
  34. Avett Brothers - Mama I Dont Believe Chords
  35. Avett Brothers - May It Last Chords
  36. Avett Brothers - Me and God Chords
  37. Avett Brothers - Murder in the City Chords
  38. Avett Brothers - My Last Song to Jenny Chords
  39. Avett Brothers - New Womans World Chords
  40. Avett Brothers - No Hard Feelings Chords
  41. Avett Brothers - No Man Chords
  42. Avett Brothers - Pretty Girl From Locust Chords
  43. Avett Brothers - Pretty Girl From Raleigh Chords
  44. Avett Brothers - Prison To Heaven Chords
  45. Avett Brothers - Salina Chords
  46. Avett Brothers - Satan Pulls The Strings Chords
  47. Avett Brothers - Shame Chords
  48. Avett Brothers - Smithsonian Chords
  49. Avett Brothers - Smoke In Our Lights Chords
  50. Avett Brothers - Sorry Man Chords
  51. Avett Brothers - Swept Away Chords
  52. Avett Brothers - Tear Down the House Chords
  53. Avett Brothers - Tell The Truth Chords
  54. Avett Brothers - The Fire Chords
  55. Avett Brothers - The Greatest Sum Chords
  56. Avett Brothers - The Traveling Song Chords
  57. Avett Brothers - The Weight Of Lies Chords
  58. Avett Brothers - Tin Man Chords
  59. Avett Brothers - True Sadness Chords
  60. Avett Brothers - Untitled #4 Chords
  61. Avett Brothers - Victims Of Life Chords
  62. Avett Brothers - Victory Chords
  63. Avett Brothers - Walking For You Chords
  64. Avett Brothers - We Americans Chords
  65. Avett Brothers - When You Learn Chords
  66. Avett Brothers - Who Will I Hold Chords



© 2019 cowboylyrics.com
All lyrics are property and copyright of their owners. All lyrics provided for educational purposes only.