Cowboy Lyrics and Chords Country Lyrics, Chords and Tabs Source #1 - CowboyLyrics.com
 MENU
  Request Lyrics
  Add/Correct Lyrics
  Links Page
  Contact Us
  Privacy Policy
  DMCA Policy
 MERCHANDISE
  Country CDs
  Country Sheet Music


BROWSE LYRICS AND TABS BY ARTIST/BAND NAME: SEARCH:
A B C D E F G H I J K L M N O P Q R S T U V W X Y Z #
 

My Next Broken Heart bass - Brooks And Dunn

Click to play this song!
Brooks And Dunn Sheet music
                Tuning: Standard
Tempo : 140
Key: G

Intro: 00:01
G|---------|-------4-||---------|-------2-|-
D|-------2-|---4-7---||-------2-|---2-5---|-
A|---2-5---|-5-------||---2-5---|-3-------|-
E|-3-------|---------||-3-------|---------|-
 
G|---------|-------4-||-------------------|-
D|-------2-|---4-7---||--------2-5-2------|-
A|---2-5---|-5-------||---2-5---------5-2-|-
E|-3-------|---------||-3-----------------|-
 

Verse1: 00:15
G|---------|-------4-||---------|-------2-|-
D|-------2-|---4-7---||-------2-|---2-5---|-
A|---2-5---|-5-------||---2-5---|-3-------|-
E|-3-------|---------||-3-------|---------|-
You picked me up, you shot me down
You're stepping out all over town
G|---------|-------4-||-------------------|-
D|-------2-|---4-7---||--------2-5-2------|-
A|---2-5---|-5-------||---2-5---------5-2-|-
E|-3-------|---------||-3-----------------|-
Drove me back to drinking in this bar
 
G|---------|-------4-||---------|-------2-|-
D|-------2-|---4-7---||-------2-|---2-5---|-
A|---2-5---|-5-------||---2-5---|-3-------|-
E|-3-------|---------||-3-------|---------|-
I found myself a brand new friend
I'm headed that road again
G|---------|-------4-||-------------------|-
D|-------2-|---4-7---||--------2--5-3-2---|-
A|---2-5---|-5-------||---2-5-----------5-|-
E|-3-------|---------||-3-----------------|-
Working on my next broken heart
 
Chorus1: 00:42
G|---------|-------4-||---------|-------2-|-
D|-------2-|---4-7---||-------2-|---2-5---|-
A|---2-5---|-5-------||---2-5---|-3-------|-
E|-3-------|---------||-3-------|---------|-
Happy or sad, it's hard to tell
You taught me how to hurt so well
G|---------|-------4-||-------------------|-
D|-------2-|---4-7---||--------2-5-2------|-
A|---2-5---|-5-------||---2-5---------5-2-|-
E|-3-------|---------||-3-----------------|-
But when it comes to love, I know my part
 
G|---------|-------4-||---------|-------2-|-
D|-------2-|---4-7---||-------2-|---2-5---|-
A|---2-5---|-5-------||---2-5---|-3-------|-
E|-3-------|---------||-3-------|---------|-
I'll play this game that I can't win
I'll be somebody's fool again
G|---------|-------4-||-------------------|-
D|-------2-|---4-7---||--------2--5-3-2---|-
A|---2-5---|-5-------||---2-5-----------5-|-
E|-3-------|---------||-3-----------------|-
Working on my next broken heart
 

Bridge: 01:10
G|-------2-|-------2-||-------------------|-
D|---2-5---|---2-5---||--------2-5-2------|-
A|-3-------|-3-------||---2-5--------5-2--|-
E|---------|---------||-3-----------------|-
I thought all along you'd
Be the death of me
G|--------2-5-2------||--------4--7-5-4---|-
D|---2-5--------5-2--||---4-7-----------7-|-
A|-3-----------------||-5-----------------|-
E|-------------------||-------------------|-
I met one tonight who wants
What's left of me
 
G|---------|-------2-||---------|-------2-|-
D|-------2-|---2-5---||-------2-|---2-5---|-
A|---2-5---|-3-------||---2-5---|-3-------|-
E|-3-------|---------||-3-------|---------|-
I've seen that look before
She'll tear my world apart
G|-------------------||-------------------|-
D|--------2-5-2------||--------2--5-3-2---|-
A|---2-5---------5-2-||---2-5-----------5-|-
E|-3-----------------||-3-----------------|-
I'm working on my next broken heart
 

Instrumental: 01:36 (Play X2)
G|---------|-------4-||---------|-------2-|-
D|-------2-|---4-7---||-------2-|---2-5---|-
A|---2-5---|-5-------||---2-5---|-3-------|-
E|-3-------|---------||-3-------|---------|-
 
G|---------|-------4-||-------------------|-
D|-------2-|---4-7---||--------2-5-2------|-
A|---2-5---|-5-------||---2-5---------5-2-|-
E|-3-------|---------||-3-----------------|-
 
G|---------|-------4-||---------|-------2-|-
D|-------2-|---4-7---||-------2-|---2-5---|-
A|---2-5---|-5-------||---2-5---|-3-------|-
E|-3-------|---------||-3-------|---------|-
 
G|---------|-------4-||-------------------|-
D|-------2-|---4-7---||--------2--5-3-2---|-
A|---2-5---|-5-------||---2-5-----------5-|-
E|-3-------|---------||-3-----------------|-
 

Bridge: 02:04
G|-------2-|-------2-||-------------------|-
D|---2-5---|---2-5---||--------2-5-2------|-
A|-3-------|-3-------||---2-5--------5-2--|-
E|---------|---------||-3-----------------|-
I thought all along you'd
Be the death of me
G|--------2-5-2------||--------4--7-5-4---|-
D|---2-5--------5-2--||---4-7-----------7-|-
A|-3-----------------||-5-----------------|-
E|-------------------||-------------------|-
I met one tonight who wants
What's left of me
 
G|---------|-------2-||---------|-------2-|-
D|-------2-|---2-5---||-------2-|---2-5---|-
A|---2-5---|-3-------||---2-5---|-3-------|-
E|-3-------|---------||-3-------|---------|-
I've seen that look before
She'll tear my world apart
G|-------------------||-------------------|-
D|--------2-5-2------||--------2--5-3-2---|-
A|---2-5---------5-2-||---2-5-----------5-|-
E|-3-----------------||-3-----------------|-
I'm working on my next broken heart
 
Outro: 02:32
G|-------------------||-------------------|-
D|--------2-5-2------||--------2-5-2------|-
A|---2-5---------5-2-||---2-5---------5-2-|-
E|-3-----------------||-3-----------------|-
I'm working on my next broken heart
G|---------|-------4-||-------------------|-
D|-------2-|---4-7---||--------2----------|-
A|---2-5---|-5-------||---2-5-----5-------|-
E|-3-------|---------||-3------------3~~--|-
I'm working on my next broken heart
 
End: 02:56


Tablature Legend ----------------  
| S  slap 
| P  pop 
| x  mute note 
| /  slide up 
| \  slide down 
| h  hammer-on 
| p  pull-off 
| g  grace note 
| ~  vibrato 
| ^  brush up


The G scale  (for ref)
G|------------------||------------------|-
D|-------2-5-2------||-------2-5-2------|-
A|---2-5-------5-2--||---2-5-------5-2--|- 
E|-3----------------||-3----------------|-

G|-------2-5-2------||-------2-5-2------|-
D|---2-5-------5-2--||---2-5-------5-2--|- 
A|-3----------------||-3----------------|-
E|------------------||------------------|-

G|------------------||------------------|-
D|-------2-5-2------||-------2-5-2------|-
A|---2-5-------5-2--||---2-5-------5-2--|- 
E|-3----------------||-3----------------|-

G|-------4-7-4------||-------2-5-2------|-
D|---4-7-------7-4--||---2-5-------5-2--|-
A|-5----------------||-3----------------|- 
E|------------------||------------------|-

G|------------------||------------------|-
D|-------2-5-2------||-------2-5-2------|-
A|---2-5-------5-2--||---2-5-------5-2--|- 
E|-3----------------||-3----------------|-
            



Brooks And Dunn ChordsBrooks And Dunn Lyrics



Brooks And Dunn Tabs, Tablatures, Chords, Lyrics

Buy Brooks And Dunn CD
Brooks And Dunn

  1. Brooks And Dunn - A Man This Lonely Chords
  2. Brooks And Dunn - Again Chords
  3. Brooks And Dunn - Aint Nothing Bout You Chords
  4. Brooks And Dunn - Always Be Loved By Me Chords
  5. Brooks And Dunn - Beer Thirty Chords
  6. Brooks And Dunn - Believe Chords
  7. Brooks And Dunn - Believe Chords
  8. Brooks And Dunn - Best Of My Love Chords
  9. Brooks And Dunn - Best Of My Love (intro) Tabs
  10. Brooks And Dunn - Boot Scootin Boogie Chords
  11. Brooks And Dunn - Brand New Man Ukulele
  12. Brooks And Dunn - Brand New Man Chords
  13. Brooks And Dunn - Brand New Man Chords
  14. Brooks And Dunn - Brand New Man (solo) Tabs
  15. Brooks And Dunn - Brand New Whiskey Chords
  16. Brooks And Dunn - Building Bridges Chords
  17. Brooks And Dunn - Caroline Chords
  18. Brooks And Dunn - Cool Drink Of Water Chords
  19. Brooks And Dunn - Cowboy Town Chords
  20. Brooks And Dunn - Cowgirls Don't Cry Chords
  21. Brooks And Dunn - Cowgirls Don't Cry 2 Chords
  22. Brooks And Dunn - Days Of Thunder Chords
  23. Brooks And Dunn - Every River Chords
  24. Brooks And Dunn - God Must Be Busy Chords
  25. Brooks And Dunn - Goin Under Gettin Over You Chords
  26. Brooks And Dunn - Hard Workin Man Chords
  27. Brooks And Dunn - He's Got You Chords
  28. Brooks And Dunn - Hes Got You Chords
  29. Brooks And Dunn - Honky Tonk Truth Chords
  30. Brooks And Dunn - How Long Gone Chords
  31. Brooks And Dunn - How Long Gone 2 Chords
  32. Brooks And Dunn - Husbands And Wives Chords
  33. Brooks And Dunn - Husbands And Wives 2 Chords
  34. Brooks And Dunn - Husbands And Wives 3 Chords
  35. Brooks And Dunn - I Am That Man Chords
  36. Brooks And Dunn - I Am That Man 2 Chords
  37. Brooks And Dunn - I Cant Get Over You Chords
  38. Brooks And Dunn - I Fall Chords
  39. Brooks And Dunn - I'm Proud of the House we Built Chords
  40. Brooks And Dunn - If Thats Way You Want It Chords
  41. Brooks And Dunn - If You See Her Him Chords
  42. Brooks And Dunn - If You See Him Her 2 Chords
  43. Brooks And Dunn - If You See Him Her 3 Chords
  44. Brooks And Dunn - Indian Summer Chords
  45. Brooks And Dunn - It Won't Be Christmas Without You Chords
  46. Brooks And Dunn - It's Getting Better All The Time Chords
  47. Brooks And Dunn - Ive Got A Lot To Learn Chords
  48. Brooks And Dunn - Just Another Neon Night Chords
  49. Brooks And Dunn - Little Miss Honky Tonk Chords
  50. Brooks And Dunn - Long Goodbye Chords
  51. Brooks And Dunn - Lost And Found Chords
  52. Brooks And Dunn - Lost And Found Chords
  53. Brooks And Dunn - Mexican Minutes Chords
  54. Brooks And Dunn - Missing You Chords
  55. Brooks And Dunn - Momma Dont Get Dressed Up Chords
  56. Brooks And Dunn - My Heart Is Lost To You Chords
  57. Brooks And Dunn - My Heart Is Lost To You 2 Chords
  58. Brooks And Dunn - My Maria Chords
  59. Brooks And Dunn - My Next Broken Heart Chords
  60. Brooks And Dunn - My Next Broken Heart Bass
  61. Brooks And Dunn - Neon Moon Chords
  62. Brooks And Dunn - Neon Moon Chords
  63. Brooks And Dunn - Never Forgive My Heart Chords
  64. Brooks And Dunn - Only In America Chords
  65. Brooks And Dunn - Our Time Is Coming Chords
  66. Brooks And Dunn - Play Something Country Chords
  67. Brooks And Dunn - Proud Of The House We Built Chords
  68. Brooks And Dunn - Put A Girl In It Tabs
  69. Brooks And Dunn - Put A Girl In It 2 Chords
  70. Brooks And Dunn - Red Dirt Road Chords
  71. Brooks And Dunn - Redneck Rhythm And Blues Chords
  72. Brooks And Dunn - Rock My World Chords
  73. Brooks And Dunn - She Used To Be Mine Chords
  74. Brooks And Dunn - Shes Not The Cheatin Kind Chords
  75. Brooks And Dunn - Silver And Gold Chords
  76. Brooks And Dunn - South Of Santa Fe Chords
  77. Brooks And Dunn - Still In Love With You Chords
  78. Brooks And Dunn - Tequila Town Chords
  79. Brooks And Dunn - Texas Women Chords
  80. Brooks And Dunn - That Aint No Way To Go Chords
  81. Brooks And Dunn - Used To Be Mine Chords
  82. Brooks And Dunn - Well Burn That Bridge Chords
  83. Brooks And Dunn - When Love Dies Chords
  84. Brooks And Dunn - Whiskey Under The Bridge Chords
  85. Brooks And Dunn - Why Would I Say Goodbye Chords
  86. Brooks And Dunn - Youre Gonna Miss Me When Im Gone Chords
  87. Brooks And Dunn - Youre My Angel Chords



© 2018 cowboylyrics.com
All lyrics are property and copyright of their owners. All lyrics provided for educational purposes only.