Mercury chords

Swap ↔ or rotate ↻ the device
            Capo 4
 
C - 010230
D - 232000
Am - 012200
G - 320003
D/E - 200230
 
h  = hammer
              D           C
e   --------------------------------------------------------
B   --------------------------------------------------------
G   ----------2--0--0---------------------------------------
D   -------0----------2--0--0--2h--0------0--2h--0----------
A   ----------------------------------3-------------3-------
E   --------------------------------------------------------
    Wanna..
              D           C
e   --------------------------------------------------------
B   --------------------------------------------------------
G   ----------2--0--0---------------------------------------
D   -------0----------2--0--0--2h--0------0--2h--0----------
A   ----------------------------------3-------------3-------
E   --------------------------------------------------------
    Mercury is ...
[Same as above] Wanna take ... The parking lot ... Am D x2 G And it's ... D C I would've .. the car G And it's ... D C I would've .. the car D/E G C Wanna go ... D/E G C Mercury is parked ... the light D/E G C Wanna ...to D/E G C The parking lot ... high school Am D x2 G And it's .. D C I would've... in the car G And it's .. D C I would've... in the car G D C D G D Ends on C


Kathleen Edwards Chords & Tabs List