Falling chords - Mindy Smith

Mindy Smith Lyrics


            Mindy Smith 
"Falling"

Capo on the 4th Fret


Riff 1.
e---------------------------     
b---------3---1-------------
g-------0---------2-4--4---4
d------0----0---0--0--0--0--
a----2----------------------
E----3----------------------
       G


Riff 2.

e--------------------0------
b-------3--------------3----
g------0-0-0-------0----0---
d-----4---4-------2---------
a----2-----------3----------
E---------------------------
        BM        Cadd9
Riff 1. It seems like out of nowhere Riff 2. Riff 1. I'm coming apart Riff 1. and nothing could of saved me Riff 2. you went straight for my heart CHORUS Riff 3. e--------------------------------------0---- b-------1----------3---------------3----3-3- g------2-2--------0-0-0-----------0-0----0-0 d-----2---2------4---4-----------2---2------ a----0----------2---------------3----------- E------------------------------------------- AM BM Cadd9 Riff 3. When I've almost had enough Riff 3. something about you draws me back again Riff 3. when I've almost given up Riff 3. something about you pulls me in Riff 1. and were falling. 2ND VERSE G It feels like i am reaching BM Cadd9 trying to hold on to you G and i know that there's still hope here BM Cadd9 and I know you'll come through Then Chorus During solo play G Cadd9 D Riff 3. When I've almost had enough Riff 3. when I've almost given up Riff 1. End With g and were falling.