Sean Watkins, Cloudbreak Tabs, Chords, Lyrics

Sean Watkins, Cloudbreak Tabs, Chords

 SITE MENU
 Request Tabs
 Add/Correct Tabs
 DMCA Policy
 Country Sheet Music
0

BROWSE LYRICS AND TABS BY ARTIST/BAND NAME: SEARCH HERE:
A B C D E F G H I J K L M N O P Q R S T U V W X Y Z #
 

Sean Watkins - Cloudbreak (Tabs)


Sean Watkins CD
Sean Watkins Sheet music
Sean Watkins Posters
I'VE FINISHED IT!!! YESSSSS!
 FINALLY!!! 
hope u guys enjoy it 
comment me one it!!

Tuning: Dropped D    


E|--5-/-6-6--6--5------------------------------------------||
B|--8-----8--8--8--10-------3--5-7-7--5-3-5----------------||
G|--7-----7--7--7--7------------------------2--------------||
D|--0-----0--0--0--0-------0----0--------------------------||
A|--0--------------0-------0----0--------------------------||
D|--0-----------------0-0--0----0--------------------------||



E|--------------5/6-6-6-9-10--12----------------------5--9-10--||
B|-3-3/7/3-0----8---8------------10----------10-----7----------||
G|------0-------7---7---------------------11------6------------||
D|---0--0-------0---0------------------11----------------------||
A|---0--0-------0-----------------9---9------------------------||
D|--------------0----------------------------------------------||




E|--------------------------------------------------------------||
B|-8--------------------8---------------------------------------||
G|---9---9-9---7-9-6------9---9-----9--11-------------0---------||
D|-----9-----9-----7--------9-----9-------0-----0-7-9-----------||
A|-7-------0-------0----7-------7-----------0--0----------------||
D|-----------------0--------------------------0-----------------||



E|-------------------------------------------------------||
B|-8-----------------------------------------------------||
G|---9---9-----------7-9-6-------------------------------||
D|-----9-----9-9---7-----7-------------------------------||
A|-7-------7-----0-------0-------------------------------||
D|-------------------------------------------------------||


E|--5-/-6-6--6--5------------------------------------------||
B|--8-----8--8--8--10-------3--5-7-7--5-3-5----------------||
G|--7-----7--7--7--7------------------------2--------------||
D|--0-----0--0--0--0-------0----0--------------------------||
A|--0--------------0-------0----0--------------------------||
D|--0-----------------0-0--0----0--------------------------||



E|--------------5/6-6-6-9-10--12----------------------5--9-10--||
B|-3-3/7/3-0----8---8------------10----------10-----7----------||
G|------0-------7---7---------------------11------6------------||
D|---0--0-------0---0------------------11----------------------||
A|---0--0-------0-----------------9---9------------------------||
D|--------------0----------------------------------------------||




E|--------------------------------------------------------------||
B|-8--------------------8---------------------------------------||
G|---9---9-9---7-9-6------9---9-----9--11-------------0---------||
D|-----9-----9-----7--------9-----9-------0-----0-7-9-----------||
A|-7-------0-------0----7-------7-----------0--0----------------||
D|-----------------0--------------------------0-----------------||


E|-------------------------------------------------------||
B|-8-----------------------------------------------------||
G|---9---9-----------7-9-6-------------------------------||
D|-----9-----9-9---7-----7-------------------------------||
A|-7-------7-----0-------0-------------------------------||
D|-------------------------------------------------------||


E|--------------------------------------------------||
B|------------------------------2-3-5-3-------------||
G|-------------0-------------------------0-2-4-2----||
D|-------0--2/4-4/2-0-2---2-2/4----------------0----||
A|-0-4/5-5------------0-0----------------------0----||
D|-------0------------------------------------------||


E|----------------------------------------------||
B|----------------------------------------------||
G|----------------------------4--0-----0--------||
D|-------2-2/4-2-2-2/4------0--------0----------||
A|-------------0----------3--------0------------||
D|----------------------3-----------------------||



E|--------------------------------------------------||
B|------------------------------2-3-5-3-------------||
G|-------------0-------------------------0-2-4-2----||
D|-------0--2/4-4/2-0-2---2-2/4----------------0----||
A|-0-4/5-5------------0-0----------------------0----||
D|-------0------------------------------------------||


E|-------------------------------------------------||
B|-------------------------------------------------||
G|----------------------------4--0-----0-----------||
D|-------2-2/4-2-2-2/4------0--------0-------------||
A|-------------0----------3--------0---------------||
D|----------------------3--------------------------||


E|--2/3-3-2--0--------2/3-3--2------------0-----------------0---------------||
B|--3---3-3--3--3-2---3---3--3----------3--------3-0------3------------3-0--||
G|--2---2-2--2--2-2---2---2--2--------4--------2--------4------------2------||
D|--0---0-0--0--0-0---0---0--0------4--------2--------4-----------2---------||
A|--------------------------------2--------0--------2----------0------------||
D|--------------------------------------------------------------------------||


E|--2/3-3-2--0--------2/3-3--2------------0-----------------0----------------||
B|--3---3-3--3--3-2---3---3--3----------3--------3-0------3--------------3-0-||
G|--2---2-2--2--2-2---2---2--2--------4--------2--------4--------------2-----||
D|--0---0-0--0--0-0---0---0--0------4--------2--------4-------------2--------||
A|--------------------------------2--------0--------2------------0-----------||
D|---------------------------------------------------------------------------||


E|-------------------------------------------------------||
B|-----------5--7-------7---------5-7--------7-----------||
G|--------5-----------5---------5---------5--------------||
D|-----5------------5---------5---------5----------------||
A|---3------------5---------3---------5------------------||                       
D|-------------------------------------------------------||

E|--5-/-6-6--6--5------------------------------------------||
B|--8-----8--8--8--10-------3--5-7-7--5-3-5----------------||
G|--7-----7--7--7--7------------------------2--------------||
D|--0-----0--0--0--0-------0----0--------------------------||
A|--0--------------0-------0----0--------------------------||
D|--0-----------------0-0--0----0--------------------------||



E|--------------5/6-6-6-9-10--12----------------------5--9-10--||
B|-3-3/7/3-0----8---8------------10----------10-----7----------||
G|------0-------7---7---------------------11------6------------||
D|---0--0-------0---0------------------11----------------------||
A|---0--0-------0-----------------9---9------------------------||
D|--------------0----------------------------------------------||




E|--------------------------------------------------------------||
B|-8--------------------8---------------------------------------||
G|---9---9-9---7-9-6------9---9-----9--11-------------0---------||
D|-----9-----9-----7--------9-----9-------0-----0-7-9-----------||
A|-7-------0-------0----7-------7-----------0--0----------------||
D|-----------------0--------------------------0-----------------||


E|-------------------------------------------------------||
B|-8-----------------------------------------------------||
G|---9---9-----------7-9-6-------------------------------||
D|-----9-----9-9---7-----7-------------------------------||
A|-7-------7-----0-------0-------------------------------||
D|-------------------------------------------------------||


E|-----------------------------------------||
B|-8---------------------------------------||
G|---9---9-----9--11-------------0---------||
D|-----9-----9-------0-----0-7-9-----------||
A|-7-------7-----------0--0----------------||
D|----------------------0------------------||



E|---------------------------------------------------------||
B|-8-------------------------------------------------3-----||
G|---9---9-----------7-9-6------6------7-9


Watkins Sean Tabs & ChordsWatkins Sean Lyrics



Watkins Sean Tabs, Tablatures, Chords, Lyrics

Buy Watkins Sean CD
Watkins Sean
Buy Watkins Sean CD

  1. Watkins Sean - Carousel (correct) Chords
  2. Watkins Sean - Chicago Chords
  3. Watkins Sean - Cloudbreak Tabs
  4. Watkins Sean - Ferdinand The Bull Tabs
  5. Watkins Sean - Ferdinand The Bull (mandolin) Tabs
  6. Watkins Sean - Hello...goodbye Chords
  7. Watkins Sean - Hiding Tabs
  8. Watkins Sean - Let It Fall Chords
  9. Watkins Sean - Locking Doors Chords
  10. Watkins Sean - Locking Doors (corrected) Chords
  11. Watkins Sean - No Lighted Windows Chords
  12. Watkins Sean - On Ice (accurate) Chords
  13. Watkins Sean - Roses Never Red Chords
  14. Watkins Sean - Run Away Girl Tabs
  15. Watkins Sean - Starve Them To Death Chords
  16. Watkins Sean - The Birth (guitar Part) Tabs
  17. Watkins Sean - They Sail Away Tabs
  18. Watkins Sean - Through The Spring Tabs



cowboylyrics.com
All lyrics are property and copyright of their owners. All lyrics provided for educational purposes only.