Sean Watkins, Hiding Tabs, Chords, Lyrics

Sean Watkins, Hiding Tabs, Chords

 SITE MENU
 Request Tabs
 Add/Correct Tabs
 DMCA Policy
 Country Sheet Music
0

BROWSE LYRICS AND TABS BY ARTIST/BAND NAME: SEARCH HERE:
A B C D E F G H I J K L M N O P Q R S T U V W X Y Z #
 

Sean Watkins - Hiding (Tabs)


Sean Watkins CD
Sean Watkins Sheet music
Sean Watkins Posters
Artist: Sean Watkins

*Okay, this is my first tab, so be nice. I'm not completely sure the chords are  right (they could 
be more complicated), but I'm pretty sure the notes on the tab are right. Some of the slides, 
pull-offs, and hammer-ons might not be correct though. The first chord of each verse (F) is just 
one strum. Then, the other chords are all regular strumming (down-up, down-up, etc.) Listen to the 
song to get a more accurate strum and find the pattern. Also, the G chord is played like this: 320022 
rather than this: 320002.

Verse 1:

F 	  	  	       G
What are you hiding from me?
C
What are you hiding
C           D           G
Beneath the leaves that color you,
C           D           G
And all the things that make you what you feel?

Verse 2:

F 	  	  	       G
The sun ain't inviting I know,
C
The sun ain't inviting,
         C     D         G
But I've sat beneath the bridges
         C           D     G               C
And I've watched the water pass between my toes

Chorus:

    D
You wonder who to follow,
        C
And you lie about your heart
           D
There's no need to buy tomorrow,
             C  G        D
When there's no place to start

Verse 3:

F 	  	  	           G
So where are you hiding from me?
C
Where are you hiding?
C         D       G
My little troll beneath the bridge
          C       D         G              C
Well I've counted down from ten and here I come

Chorus


Solo:

e|--------------------------------------------3--5/7--7/10--
B|------------------------------------3--3/5----------------
G|--0--0--0--0--0--0----------0--2/4------------------------
D|--3--3--3--3--2--0-------0--------------------------------
A|--------------------2h3-----------------------------------
E|----------------------------------------------------------

e|--10--10/12--10--5p3--5p3--7--5--2--3--5--3--3----3----3--
B|---------------------------------------------3h5--3p0--3--
G|----------------------------------------------------------
D|----------------------------------------------------------
A|----------------------------------------------------------
E|----------------------------------------------------------

e|--3--------------------3--2h3p2--0------------------------
B|--3--3----3---------3---------------3-------3--3----3-----
G|-----2p0--2p0--2/4---------------------2/4-----2p0--2p0---
D|----------------------------------------------------------
A|----------------------------------------------------------
E|----------------------------------------------------------

e|----------------------------------8-----------------------
B|-----------------------------3/5--------------------------
G|-----------------------0--2-------------------------------
D|--0h2p0----------0--2-------------------------------------
A|---------3p0--3-------------------------------------------
E|----------------------------------------------------------


Verse 4:

F                     G
I saw a bird fly its cage
C
Out of the darkness,
         C           D       G
Well its wings could take it anywhere,

      C          D       G                  C
But I watched as it flew back from where it came

Chorus
 


Watkins Sean Tabs & ChordsWatkins Sean Lyrics



Watkins Sean Tabs, Tablatures, Chords, Lyrics

Buy Watkins Sean CD
Watkins Sean
Buy Watkins Sean CD

  1. Watkins Sean - Carousel (correct) Chords
  2. Watkins Sean - Chicago Chords
  3. Watkins Sean - Cloudbreak Tabs
  4. Watkins Sean - Ferdinand The Bull Tabs
  5. Watkins Sean - Ferdinand The Bull (mandolin) Tabs
  6. Watkins Sean - Hello...goodbye Chords
  7. Watkins Sean - Hiding Tabs
  8. Watkins Sean - Let It Fall Chords
  9. Watkins Sean - Locking Doors Chords
  10. Watkins Sean - Locking Doors (corrected) Chords
  11. Watkins Sean - No Lighted Windows Chords
  12. Watkins Sean - On Ice (accurate) Chords
  13. Watkins Sean - Roses Never Red Chords
  14. Watkins Sean - Run Away Girl Tabs
  15. Watkins Sean - Starve Them To Death Chords
  16. Watkins Sean - The Birth (guitar Part) Tabs
  17. Watkins Sean - They Sail Away Tabs
  18. Watkins Sean - Through The Spring Tabs



cowboylyrics.com
All lyrics are property and copyright of their owners. All lyrics provided for educational purposes only.