Sean Watkins, Starve Them To Death Tabs, Chords, Lyrics

Sean Watkins, Starve Them To Death Tabs, Chords

 SITE MENU
 Request Tabs
 Add/Correct Tabs
 DMCA Policy
 Country Sheet Music
0

BROWSE LYRICS AND TABS BY ARTIST/BAND NAME: SEARCH HERE:
A B C D E F G H I J K L M N O P Q R S T U V W X Y Z #
 

Sean Watkins - Starve Them To Death (Chords)


Sean Watkins CD
Sean Watkins Sheet music
Sean Watkins Posters
capo2



e---3-----2--------------------                          
b---3-----3--------------------
g---0-----0--------------------
d---0-----0--------------------
a---3-----0--------------------
e---3-----2-------------------- 
 History flies all around me 



e---3-----2--------------------                          
b---3-----3--------------------
g---0-----0--------------------
d---0-----0--------------------
a---3-----0--------------------
e---3-----2-------------------- 

An angry swarm of mistakes 





--3---0--2--3--3---3--------------
--3---1--3--3--3---3--------------
--0---2--2--0--2---0--------------
--0---2--0--0--2---0--------------
--3---0--0--2--0---3--------------
--3---0--0--3--0---3--------------

I ran away but not far enough 




e---3-----2--------------------                          
b---3-----3--------------------
g---0-----0--------------------
d---0-----0--------------------
a---3-----0--------------------
e---3-----2-------------------- 
I thought they were gone 



e---3-----2--------------------                          
b---3-----3--------------------
g---0-----0--------------------
d---0-----0--------------------
a---3-----0--------------------
e---3-----2-------------------- 
I didn't realize I kept them alive 
In the back of my mind 



--3---0--2--3--3---3--------------
--3---1--3--3--3---3--------------
--0---2--2--0--2---0--------------
--0---2--0--0--2---2--------------
--3---0--0--2--0---3--------------
--3---0--0--3--0---0--------------
If I could forget it would starve them to death 

 


Pay no attention to the monsters 
They come ahead of their time 
They hurt much more before their real 

Their fingers reach from the future 
They clutch my throat and play with my mind 
Turning away would starve them to death 

All that's left in my power 
Is trusting or not in the sour 
If I believed it would starve them to death 


Watkins Sean Tabs & ChordsWatkins Sean Lyrics



Watkins Sean Tabs, Tablatures, Chords, Lyrics

Buy Watkins Sean CD
Watkins Sean
Buy Watkins Sean CD

  1. Watkins Sean - Carousel (correct) Chords
  2. Watkins Sean - Chicago Chords
  3. Watkins Sean - Cloudbreak Tabs
  4. Watkins Sean - Ferdinand The Bull Tabs
  5. Watkins Sean - Ferdinand The Bull (mandolin) Tabs
  6. Watkins Sean - Hello...goodbye Chords
  7. Watkins Sean - Hiding Tabs
  8. Watkins Sean - Let It Fall Chords
  9. Watkins Sean - Locking Doors Chords
  10. Watkins Sean - Locking Doors (corrected) Chords
  11. Watkins Sean - No Lighted Windows Chords
  12. Watkins Sean - On Ice (accurate) Chords
  13. Watkins Sean - Roses Never Red Chords
  14. Watkins Sean - Run Away Girl Tabs
  15. Watkins Sean - Starve Them To Death Chords
  16. Watkins Sean - The Birth (guitar Part) Tabs
  17. Watkins Sean - They Sail Away Tabs
  18. Watkins Sean - Through The Spring Tabs



cowboylyrics.com
All lyrics are property and copyright of their owners. All lyrics provided for educational purposes only.