Whiskey Myers, Lonely East Texas Nights (solo) Tabs, Chords, Lyrics

Whiskey Myers, Lonely East Texas Nights (solo) Tabs, Chords

 SITE MENU
 Request Tabs
 Add/Correct Tabs
 DMCA Policy
 Country Sheet Music
0

BROWSE LYRICS AND TABS BY ARTIST/BAND NAME: SEARCH HERE:
A B C D E F G H I J K L M N O P Q R S T U V W X Y Z #
 

Whiskey Myers - Lonely East Texas Nights (solo) (Tabs)


Whiskey Myers CD
Whiskey Myers Sheet music
Whiskey Myers Posters
Tuning: standard

e|-------------------------------------------------------12-12-12-12-10-10---|
B|---------------------------------------------------------------------------|
G|------------12----------12/14----------12/14--12---------------------------|
D|----9-10-12-----9-10-12--------9-10-12-----------12------------------------|
A|---------------------------------------------------------------------------|
E|---------------------------------------------------------------------------x2|

e|----------15---15--17-17b19r17p15-17h-15--15--14h15p14--12h14p12---12-----|
B|----15b17---17----------------------------------------------------15--15---|
G|---------------------------------------------------------------------------|
D|---------------------------------------------------------------------------|
A|---------------------------------------------------------------------------|
E|---------------------------------------------------------------------------|

e|---------------------------------------------------------------------------|
B|--13h15p13-----------------------------------------------------------------|
G|----------14b15r14p12--14-12------12-----12h1414b15-14p12h14--12--12---12-|
D|-------------------------------14----14------------------------------14----|
A|---------------------------------------------------------------------------|
E|---------------------------------------------------------------------------|

e|---------------------------------------------------------------------------|
B|---------------------------------------------------------------------------|
G|-1214b16-14-12-12-11-11-11------------------------------------------------|
D|----------------------------14-14-12-12-----12br12-------------------------|
A|---------------------------------------------------14-12-10----10----------|
E|------------------------------------------------------------12-------------|

e|---------------------------------------------------------------------------|
B|---------------------------------------------12----------------------------|
G|--------------1214b-14p12----14------12--14-------------------------------|
D|--------12-14--------------14------14--------------------------------------|
A|--12/14--------------------------------------------------------------------|
E|---------------------------------------------------------------------------|


Whiskey Myers Tabs & ChordsWhiskey Myers Lyrics



Whiskey Myers Tabs, Tablatures, Chords, Lyrics

Buy Whiskey Myers CD
Whiskey Myers
Buy Whiskey Myers CD

  1. Whiskey Myers - Ballad Of A Southern Man Chords
  2. Whiskey Myers - Bar, Guitar And A Honky Tonk Crowd Chords
  3. Whiskey Myers - Broken Window Serenade Chords
  4. Whiskey Myers - Dyin' For Tonight Chords
  5. Whiskey Myers - Gone Away Chords
  6. Whiskey Myers - Gone Away (No Capo - Accurate) Chords
  7. Whiskey Myers - Goodbye Girl Chords
  8. Whiskey Myers - Guitar Picker Chords
  9. Whiskey Myers - Kyle Hope Chords
  10. Whiskey Myers - Lonely East Texas Nights (solo) Tabs
  11. Whiskey Myers - Lonely East Tx Nights Chords
  12. Whiskey Myers - Melancholy Blues Chords
  13. Whiskey Myers - Nobody Knows Her Name Chords
  14. Whiskey Myers - Old Broke Guitar Picker Chords
  15. Whiskey Myers - Road Of Life Chords
  16. Whiskey Myers - Song For You Tabs
  17. Whiskey Myers - Summer 2005 Chords
  18. Whiskey Myers - Virginia Chords



cowboylyrics.com
All lyrics are property and copyright of their owners. All lyrics provided for educational purposes only.