Whiskey Myers, Turn It Up Tabs, Chords, Lyrics

Whiskey Myers, Turn It Up Tabs, Chords

 SITE MENU
 Request Tabs
 Add/Correct Tabs
 DMCA Policy
 Country Sheet Music
0

BROWSE LYRICS AND TABS BY ARTIST/BAND NAME: SEARCH HERE:
A B C D E F G H I J K L M N O P Q R S T U V W X Y Z #
 

Whiskey Myers - Turn It Up (Tabs)


Whiskey Myers CD
Whiskey Myers Sheet music
Whiskey Myers Posters
Intro/pre-verse riff (riff 1):play 4x for intro
e|----------------------------------------------------------------------------------|
b|----------------------------------------------------------------------------------|
g|----------------------------------------------------------------------------------|
D|---4p2p0-2p0----------0h2-2p0-----------------------------------------------------|
A|-0-----------3p0--5p3---------3p0-------------------------------------------------|
E|----------------------------------------------------------------------------------|

I honestly don't know what he says in the first line of the song so if someone could help me out with those lyrics that 

would be great!
Verse 1:
	D				A
"................ it ain't no lie"
	D				    A
I'm tired of bein low it's time to get high
	    G
You got a bad reputation well I do too 
	D
and I know you got another round left in you

(here's the lick they play right before the chorus):
e|---3-5b--3-5b--3-5b-3-5b-5b/------------------------------------------------------|
b|---3-5b--3-5b--3-5b-3-5b-5b/------------------------------------------------------|
g|----------------------------------------------------------------------------------|
D|----------------------------------------------------------------------------------|
A|----------------------------------------------------------------------------------|
E|----------------------------------------------------------------------------------|

Chorus:
e|----------------------------------------------------------------------------------|
b|--------------------------------------------------3-------------------------------|
g|-----------------------2-2-2-----2----2-2-2-------2-------5-5-5-5-5-5-5-----------|
D|-----------------------2-2-2-----2----2-2-2-------0-------5-5-5-5-5-5-5-----------|
A|-----------------------0-0-0-3b--0----0-0-0-3b-0----------3-3-3-3-3-3-3-----------|
E|----------------------------------------------------------------------------------|
	so turn it up					woah don't turn me down
e|----------------------------------------------------------------------------------|
b|--------------------------------------------------3-------------------------------|
g|-----------------------2-2-2-----2----2-2-2-------2-------5-5-5-5-5-5-5-----------|
D|-----------------------2-2-2-----2----2-2-2-------0-------5-5-5-5-5-5-5-----------|
A|-----------------------0-0-0-3b--0----0-0-0-3b-0----------3-3-3-3-3-3-3-----------|
E|----------------------------------------------------------------------------------|
							yeah turn it up
e|----------------------------------------------------------------------------------|
b|--------------------------------------------------3-------------------------------|
g|-----------------------2-2-2-----2----2-2-2-------2-------5-5-5-5-5-5-5-----------|
D|-----------------------2-2-2-----2----2-2-2-------0-------5-5-5-5-5-5-5-----------|
A|-----------------------0-0-0-3b--0----0-0-0-3b-0----------3-3-3-3-3-3-3-----------|
E|----------------------------------------------------------------------------------|
							don't you turn me down
Play riff 1 2x

Verse:
D					    A
Eyes in the fire and notches on your belt
		D					A
if you're a workin for hire I'm in need of some help
	    G					
I got the gas in the tank so what do ya think
	      D
I got some coins in my pocket gonna play some Hank

e|---3-5b--3-5b--3-5b-3-5b-5b/------------------------------------------------------|
b|---3-5b--3-5b--3-5b-3-5b-5b/------------------------------------------------------|
g|----------------------------------------------------------------------------------|
D|----------------------------------------------------------------------------------|
A|----------------------------------------------------------------------------------|
E|----------------------------------------------------------------------------------|

Chorus:
e|----------------------------------------------------------------------------------|
b|--------------------------------------------------3-------------------------------|
g|-----------------------2-2-2-----2----2-2-2-------2-------5-5-5-5-5-5-5-----------|
D|-----------------------2-2-2-----2----2-2-2-------0-------5-5-5-5-5-5-5-----------|
A|-----------------------0-0-0-3b--0----0-0-0-3b-0----------3-3-3-3-3-3-3-----------|
E|----------------------------------------------------------------------------------|
So turn it up						woah don't turn me down
e|----------------------------------------------------------------------------------|
b|--------------------------------------------------3-------------------------------|
g|-----------------------2-2-2-----2----2-2-2-------2-------5-5-5-5-5-5-5-----------|
D|-----------------------2-2-2-----2----2-2-2-------0-------5-5-5-5-5-5-5-----------|
A|-----------------------0-0-0-3b--0----0-0-0-3b-0----------3-3-3-3-3-3-3-----------|
E|----------------------------------------------------------------------------------|
							yeah turn it up
e|----------------------------------------------------------------------------------|
b|--------------------------------------------------3-------------------------------|
g|-----------------------2-2-2-----2----2-2-2-------2-------5-5-5-5-5-5-5-----------|
D|-----------------------2-2-2-----2----2-2-2-------0-------5-5-5-5-5-5-5-----------|
A|-----------------------0-0-0-3b--0----0-0-0-3b-0----------3-3-3-3-3-3-3-----------|
E|----------------------------------------------------------------------------------|
							naw don't ya turn me down
e|----------------------------------------------------------------------------------|
b|--------------------------------------------------3-------------------------------|
g|-----------------------2-2-2-----2----2-2-2-------2-------5-----------------------|
D|-----------------------2-2-2-----2----2-2-2-------0-------5-----------------------|
A|-----------------------0-0-0-3b--0----0-0-0-3b-0----------3-----------------------|
E|----------------------------------------------------------------------------------|
Bridge before solo:
e|----------------------------------------------------------------------------------|
b|----------------------------------------------------------------------------------|
g|----------------------------------------------------------------------------------|
D|--2---2---2---2-------------------------------------------------------------------|
A|--2---2---2---2-------------------------------------------------------------------|
E|--0-0-0-0-0-0-0-0-----------------------------------------------------------------|
Solo 1 riff (played by Cody Tate) played 4x during first solo
e|-------------------------------------------------------------------------------------|
b|---------------------------3---------------------------------------------------------|
g|--2-2-2--------------------2---------------------------------------------------------|
D|--2-2-2--------------------0---------------------------------------------------------|
A|--0-0-0-3bp0-0--3bp0-0-3p0-----------------------------------------------------------|
E|-------------------------------------------------------------------------------------|
Solo 1 (played by John Jeffers)
e|--------------------------------------------------------------------------------------------------------|
b|---7b---7b--5----------------------8-10-10-10----15b----15br-13------13-----7-5-7-5-------------5/------|
g|---7b---7b--5---7p5------------7/9------------------------------14------12--7-5-7-5--7br5---7p5-5/------|
D|--------------7------7p5-5h7-7------------------------------------------------------------7 ------------|
A|--------------------------------------------------------------------------------------------------------|
E|--------------------------------------------------------------------------------------------------------|
Solo 2 riff (played by John Jeffers) Honestly don't know if I got this right or not but I think it's correct.
e|----------------------------------------------------------------------------------|
b|----------------------------------------------------------------------------------|
g|--2---------5---------7--------9/7----7/5---2-------------------------------------|
D|--2---------5---------7--------9/7----7/5---2-------------------------------------|
A|--0---------3---------5--------7/5----5/3---0-------------------------------------|
E|----------------------------------------------------------------------------------|
Solo 2 (played by Cody Tate)
e|----------------------------------------------------------------------------------|
b|----------------------------------------------------------------------------------|
g|----7b--7b-7b-7b/------12b---12b-12b-12b/-------------------------12----------------------------|
D|---------------------------------------------14-14---12br---------12---------12-----------------|
A|------------------------------------------------14---------15-12-------15--------15p14------12--|
E|----------------------------------------------------------------------------------------15------|

Play riff 4x

verse 3:
		D				A
You got the plastic wrap on your fresh tattoo
	D					A
Yeah a fire breathin dragon looks good on you
G
Nasty as hell and a ringin my bell
     D	
no time to waste but it's time to yell
e|----------------------------------------------------------------------------------|
b|----------------------------------------------------------------------------------|
g|--2-2-2-2-2-2-2-2-2-2-2-2-2-------------------------------------------------------|
D|--2-2-2-2-2-2-2-2-2-2-2-2-2-------------------------------------------------------|
A|--0-0-0-0-0-0-0-0-0-0-0-0-0-------------------------------------------------------|
E|----------------------------------------------------------------------------------|
Chorus:
e|----------------------------------------------------------------------------------|
b|--------------------------------------------------3-------------------------------|
g|-----------------------2-2-2-----2----2-2-2-------2-------5-5-5-5-5-5-5-----------|
D|-----------------------2-2-2-----2----2-2-2-------0-------5-5-5-5-5-5-5-----------|
A|-----------------------0-0-0-3b--0----0-0-0-3b-0----------3-3-3-3-3-3-3-----------|
E|----------------------------------------------------------------------------------|
So turn it up						woah don't turn me down

e|----------------------------------------------------------------------------------|
b|--------------------------------------------------3-------------------------------|
g|-----------------------2-2-2-----2----2-2-2-------2-------5-5-5-5-5-5-5-----------|
D|-----------------------2-2-2-----2----2-2-2-------0-------5-5-5-5-5-5-5-----------|
A|-----------------------0-0-0-3b--0----0-0-0-3b-0----------3-3-3-3-3-3-3-----------|
E|----------------------------------------------------------------------------------|
							Yeah turn it up
e|----------------------------------------------------------------------------------|
b|--------------------------------------------------3-------------------------------|
g|-----------------------2-2-2-----2----2-2-2-------2-------5-5-5-5-5-5-5-----------|
D|-----------------------2-2-2-----2----2-2-2-------0-------5-5-5-5-5-5-5-----------|
A|-----------------------0-0-0-3b--0----0-0-0-3b-0----------3-3-3-3-3-3-3-----------|
E|----------------------------------------------------------------------------------|
						Naw don't ya turn me down
e|----------------------------------------------------------------------------------|
b|--------------------------------------------------3-------------------------------|
g|-----------------------2-2-2-----2----2-2-2-------2-------5-----------------------|
D|-----------------------2-2-2-----2----2-2-2-------0-------5-----------------------|
A|-----------------------0-0-0-3b--0----0-0-0-3b-0----------3-----------------------|
E|----------------------------------------------------------------------------------|
Solo 3: haven't tabbed the last solo but the riff is the same riff as the second solo and thye song ends on that A chord.


Whiskey Myers Tabs & ChordsWhiskey Myers Lyrics



Whiskey Myers Tabs, Tablatures, Chords, Lyrics

Buy Whiskey Myers CD
Whiskey Myers
Buy Whiskey Myers CD

  1. Whiskey Myers - Anna Marie Chords
  2. Whiskey Myers - Ballad Of A Southern Man Chords
  3. Whiskey Myers - Bar, Guitar And A Honky Tonk Crowd Chords
  4. Whiskey Myers - Broken Window Serenade Chords
  5. Whiskey Myers - Calm Before The Storm Tabs
  6. Whiskey Myers - Dyin' For Tonight Chords
  7. Whiskey Myers - Gone Away Chords
  8. Whiskey Myers - Gone Away (No Capo - Accurate) Chords
  9. Whiskey Myers - Goodbye Girl Chords
  10. Whiskey Myers - Guitar Picker Chords
  11. Whiskey Myers - Kyle Hope Chords
  12. Whiskey Myers - Lonely East Texas Nights (solo) Tabs
  13. Whiskey Myers - Lonely East Tx Nights Chords
  14. Whiskey Myers - Melancholy Blues Chords
  15. Whiskey Myers - Nobody Knows Her Name Chords
  16. Whiskey Myers - Old Broke Guitar Picker Chords
  17. Whiskey Myers - Road Of Life Chords
  18. Whiskey Myers - Song For You Tabs
  19. Whiskey Myers - Summer 2005 Chords
  20. Whiskey Myers - Turn It Up Tabs
  21. Whiskey Myers - Virginia Chords



cowboylyrics.com
All lyrics are property and copyright of their owners. All lyrics provided for educational purposes only.