Cowboy Lyrics and Chords Country Lyrics, Chords and Tabs Source #1 - CowboyLyrics.com
 SITE MENU
  Request Lyrics
  Add/Correct Lyrics
  Links Page
  Contact Us
  Privacy Policy
  DMCA Policy
 MERCHANDISE
  Country CDs
  Country Sheet Music




Partners ToneMedia



Since 20.01.2002
BROWSE LYRICS AND TABS BY ARTIST/BAND NAME: SEARCH HERE:
A B C D E F G H I J K L M N O P Q R S T U V W X Y Z #
 

It Will Be Me tabs - Faith Hill

Click to play this song!
Faith Hill CD
Faith Hill Sheet music
Faith Hill Posters
                Faith Hill - It Will Be Me (lead)



Play this with a slide in double drop-D tuning.


*****************************************************************************************

/   =   slide up                                     \   =   slide down

~   =   hold note

*****************************************************************************************



INTRO


D--7/9-9\7-5-4/5---5/7-7-7/9-9-9---9/10~\9-7/9~\7-5/7~/9---|
B----------------------------------------------------------|
G----------------------------------------------------------|
D----------------------------------------------------------|
A----------------------------------------------------------|
D----------------------------------------------------------|



1st SOLO


D--7/9-9\7-5-4/5---5/7-7\5-5\2---------5-5-------------------------|
B-----------------------------1/3--3/5-5-5-5\3---------------------|
G---------------------------------------------2/4\--4/5--5\4---0---|
D---------------------------------------------------4/5-5----------|
A-----------------------------------------------------------1/2----|
D------------------------------------------------------------------|



2nd SOLO


D-----12~~-10/12\------------------------------10/12~~12/14\12~~12\10-10\9~/10-
B--/12-----------12\10-----10/12\----------------------------------------------
G---------------------12~~-------12\10------0----------------------------------
D-------------------------------------10/12\-----------------------------------
A------------------------------------------------------------------------------
D------------------------------------------------------------------------------

                                                                      song fades out
D----------------------------------------------------------------------3/5----------|
B--10/12\----10/12-8/10\-----------10/12-12\10---------8/10-10\8-8\5---3/5-5\3------|
G--------12~~-----------10/12-12~~------------12-11/12--------------7---------2/4---|
D-----------------------10/12-12~~--------------------------------------------------|
A-----------------------------------------------------------------------------------|
D-----------------------------------------------------------------------------------|


            



Faith Hill ChordsFaith Hill Lyrics



Faith Hill Tabs, Tablatures, Chords, Lyrics

Buy Faith Hill CD
Faith Hill
Buy Faith Hill CD

  1. Faith Hill - A Baby Changes Everything Chords
  2. Faith Hill - A Man's Home Is His Castle Chords
  3. Faith Hill - American Heart Chords
  4. Faith Hill - Breathe Tabs
  5. Faith Hill - Breathe (tabs) Tabs
  6. Faith Hill - But I Will Chords
  7. Faith Hill - Cry ( Better Version) Tabs
  8. Faith Hill - Cry (easier Way To Play) Chords
  9. Faith Hill - I Ain't Gonna Take It Anymore Chords
  10. Faith Hill - I Can't Do That Anymore( Correct Key) Chords
  11. Faith Hill - If I Should Fall Behind Chords
  12. Faith Hill - If I'm Not in Love Chords
  13. Faith Hill - If My Heart Had Wings Chords
  14. Faith Hill - If My Heart Had Wings 3 Chords
  15. Faith Hill - It Matter's To Me Chords
  16. Faith Hill - It Will Be Me Tabs
  17. Faith Hill - Just About Now Chords
  18. Faith Hill - Just Around The Eyes Chords
  19. Faith Hill - Just To Hear You Say That You Love Me Chords
  20. Faith Hill - Just to Hear You Say That You Love Me Chords
  21. Faith Hill - Let's Go to Vegas Chords
  22. Faith Hill - Let's Make Love Chords
  23. Faith Hill - Love Ain't Like That Chords
  24. Faith Hill - Love Is A Sweet Thing Chords
  25. Faith Hill - Secret of Life Chords
  26. Faith Hill - Someone Else's Dream Chords
  27. Faith Hill - Stronger Chords
  28. Faith Hill - Take Me As I Am (corrected) Chords
  29. Faith Hill - That's How Love Moves Chords
  30. Faith Hill - The Way You Love Me Chords
  31. Faith Hill - The Way You Love Me. Chords
  32. Faith Hill - There Will Come a Day Chords
  33. Faith Hill - What's In It For Me Chords
  34. Faith Hill - Where Are You Christmas Chords
  35. Faith Hill - You Can't Lose Me Chords
  36. Faith Hill - You Give Me Love Chords
  37. Faith Hill - You Will Be Mine Chords



© 2016 cowboylyrics.com
All lyrics are property and copyright of their owners. All lyrics provided for educational purposes only.