You Deserve Flowers tabs - Chris Thile

Chris Thile Lyrics


            -------------0-------------------------------4-------------
-------------------0--------------2--2---2\4----4--6--9-7-6-
-1-2--4-4\6-----6----6-6\4--2-4----------------------------
-----------------------------------------------------------

--------7-5-3-2-0---------------0------------------------4
-4-2-0-------------5-3-2-0------------0----------2-2---4--
----------------------------4\6----6----6-6\4--2----------
----------------------------------------------------------

------4------------------8-7-5-4--------------------------
--2h4---4-6-9-7-6-4-2-0----------8-7-5-4-2-0--------------
----------------------------------------------------------
----------------------------------------------------------