Man Of Constant Sorrow chords - Dan Tyminski Chords

Dan Tyminski LYRICS

Man Of Constant Sorrow chords

Swap ↔ or rotate ↻ the device
            DROP D TUNING
CAPO ON 3RD FRET

INTRO / FILL RIFF  
e---------------------------------------------------------A-
B-----------------------------------------------------------
G---------------------------------------------------------2-
D---0------0-----0-----0------0-----3-----0-----0-----0---2-
A---3H5----0-----0-----3------5-----0-----0-----0-----0---0-
D---0------0-----0-----0------0-----0-----0-----3-----0-----
                                                       

(After EVERY A Chord add the fill riff no matter where its at)
    D       G     A
e-----------------------
B-----------2-----------
G-----------0-----2-----
D---0-------0-----2-----
A---0-------x-----0-----
D---0-----3/5-----------


D                                G
I am a man of constant sorrow
              A                          (Fill Riff Here)
I've seen trouble all my day D G I bid farewell to old Kentucky A (Fill Riff Here) The place where I was born and raised A (Strum the A chord then add the Fill Riff after the back-up vocals end then start playing the chords and keep this pattern through the whole song because every verse is the same) A e----------------------------------------------------------- B----------------------------------------------------------- G------------------------------------------------------2---- D---0------0-----0------0-----0-----3------0-----0-----2---- A---3H5----0-----0------5-----0-----0------0-----0-----0---- D---0------0-----0------0-----0-----0------3-----0----------


Dan Tyminski Chords & Tabs List