Johnny Hiland, Tonal Emersion (lead Guitar) Tabs, Chords, Lyrics

Johnny Hiland, Tonal Emersion (lead Guitar) Tabs, Chords

 SITE MENU
 Request Tabs
 Add/Correct Tabs
 DMCA Policy
 Country Sheet Music
0

BROWSE LYRICS AND TABS BY ARTIST/BAND NAME: SEARCH HERE:
A B C D E F G H I J K L M N O P Q R S T U V W X Y Z #
 

Johnny Hiland - Tonal Emersion (lead Guitar) (Tabs)


Johnny Hiland CD
Johnny Hiland Sheet music
Johnny Hiland Posters
Instrument: Guitar

   Intro - Arpeggio
E------------------------------------------------------|
B------------------------------------------------------|
G--------------------4--5----4-----0----------------0--|
D-----------4--5--7-------------7-----0h--4h--5--7-----|
A-----3--5---------------------------------------------|
E--3---------------------------------------------------|


E-------------------------------------------------------------------------|
B--------------------0--1--0-----------------3----------------------------|
G--------------0--2-----------2--0--------2-------------------------4--5--|
D--------0--4--------------------------4-------------------4--5--7--------|
A-----3----------------------------------------------3--5-----------------|
E--3--------------------------------3-------------3-----------------------|


                               NH   NH   NH   NH   NH   NH   NH     NH
E-----------------------------------------------------------------------|
B----------------------------->5------------>7------->5--------------|
G--4-----0-----------0------------->5----------------------------->5--|
D-----7-----0--4--5-----0--------------->5------->7------->5---------|
A-----------------------------------------------------------------------|
E--------------------------3--------------------------------------------|

 Solo
E------------------------8--10----------------------------|
B---------7--10--7--10b---------10--10pbr--8--7--8-----7--|
G---7--9--------------------------------------------9-----|
D---------------------------------------------------------|
A---------------------------------------------------------|
E---------------------------------------------------------|


E------------------------------------------------------------|
B---------------8--8-------------------8--10-----10br--------|
G--7S--5--7--5--------5S--4------7--9---------7--------------|
D----------------------------5-------------------------------|
A------------------------------------------------------------|
E------------------------------------------------------------|


E----------------------8---------8--10---------10-----------------|
B--8--10------------8-----11b-----------11--8------10pbr--8--10b--|
G---------9--8h--9------------------------------------------------|
D-----------------------------------------------------------------|
A-----------------------------------------------------------------|
E-----------------------------------------------------------------|


E--------------------------------------------------|
B--10pbr--8--10-----8--10--8--8--10----12----13----|
G----------------9---------------------------------|
D--------------------------------------------------|
A--------------------------------------------------|
E--------------------------------------------------|


E------------------------------14pbr--12--14--12------------------|
B------15br----13--15-----------------------------15--13--12------|
G--12------------------14--14---------------------------------14--|
D-----------------------------------------------------------------|
A-----------------------------------------------------------------|
E-----------------------------------------------------------------|


E---------------------------------------------|
B------------------------------15br----12-15--|
G--12--11------14--12----12b------------------|
D----------14------------12br-----------------|
A---------------------------------------------|
E---------------------------------------------|


E--15br----------------------------------------------------------------|
B----------12--15br--15br--15-12-15-13-----12--------------------------|
G--------------------------------------14------14br--12-14-12------12--|
D--------------------------------------------------------------14------|
A----------------------------------------------------------------------|
E----------------------------------------------------------------------|


E------------------------------------------------------|
B---------------------------12S-13-15--13-12-13----12--|
G--------------------12h-14---------------------14-----|
D-------------12h-14-----------------------------------|
A--12h-13h-14------------------------------------------|
E------------------------------------------------------|


E--------12--15--14------12------------------------------|
B--15br--------------15------12--15------12--------------|
G------------------------------------14------15--14--12--|
D--------------------------------------------------------|
A--------------------------------------------------------|
E--------------------------------------------------------|


E-----------------------------------------------------------------------|
B------------------------12--13------13------15b--------15--13--15--13--|
G--14------14br--12--14----------12------12-----------------------------|
D------12---------------------------------------------------------------|
A-----------------------------------------------------------------------|
E-----------------------------------------------------------------------|


E--15------14h-15p-14p-12----------------------------------|
B------12------------------15--13--12----------------------|
G--------------------------------------14--12--11--14--12--|
D----------------------------------------------------------|
A----------------------------------------------------------|
E----------------------------------------------------------|


E-------------------------------------------------|
B-----------------------------12--15--13------12--|
G------12br--12--12------14b--------------14------|
D--12----------------12---------------------------|
A-------------------------------------------------|
E-------------------------------------------------|


E-----------12-------------------------------------------------|
B-------12------15--12---------------------------------12--13--|
G--14b------------------15--14--12------12---------14----------|
D-----------------------------------12------14p-12-------------|
A--------------------------------------------------------------|
E--------------------------------------------------------------|


E----------------------------------14br----12------------------|
B------15br----13--15----------12--------------15--13--12--13--|
G--12------------------14--14----------------------------------|
D--------------------------------------------------------------|
A--------------------------------------------------------------|
E--------------------------------------------------------------|


E------------------------------------------------------|
B--12--------------------------------------------------|
G------14--12------11--12----14pbr--12--14------14b----|
D--------------14---------------------------12---------|
A------------------------------------------------------|
E------------------------------------------------------|


E-----------------------------------|
B--15-------------------------------|
G------14----12--11-----------------|
D--------------------14--12--10--9--|
A-----------------------------------|
E-----------------------------------|

 Solo during arpeggio ...
E------------------------------------------------------------------------|
B------13----12------12--13----12----15----------------------------------|
G----------------------------------------14--12----11----12--11----------|
D--10------------------------------------------------------------14--12--|
A------------------------------------------------------------------------|
E------------------------------------------------------------------------|

                                   arpeggio end.
E-----------------------------------------------|
B-----------------------------------------------|
G-------------------11--11b--14--12--14b--------|
D--10--12--10--9--------------------------------|
A-----------------------------------------------|
E-----------------------------------------------|

 Solo
E---------------------------------|
B--15b--15pbr---------------------|
G----------------14pbr--12--14----|
D---------------------------------|
A---------------------------------|
E---------------------------------|


E--------12-15-12----12-15b--------12-15-----------------------------------|
B-----13----------13----------------------15b--15pbr-----------12--15------|
G--14-----------------------------------------------------14b----------12--|
D-----------------------------------------------------12-------------------|
A--------------------------------------------------------------------------|
E--------------------------------------------------------------------------|


E------------------------------------------------------|
B----------13--------15------15br--------13--15--13----|
G------12--------12------12----------------------------|
D--14--------------------------------------------------|
A------------------------------------------------------|
E------------------------------------------------------|


E----------------------------------------------------------|
B--12--12--13--15-------------------------------12S-13-15--|
G------------------12--------------------12h-14------------|
D---------------------------------12h-14-------------------|
A----------------------12h-13h-14--------------------------|
E----------------------------------------------------------|


E-----------------------------------------------------------------------|
B------------12------13------15--13------12--12h-13p-12---------12------|
G--12--14--------14------14----------14-----------------14--12------12--|
D-----------------------------------------------------------------------|
A-----------------------------------------------------------------------|
E-----------------------------------------------------------------------|


E---------------------12------------------------------------------|
B--15-------------12------15--12------------------------------13--|
G------12----14b------------------14br----12--14--12------12------|
D-----------------------------------------------------14----------|
A-----------------------------------------------------------------|
E-----------------------------------------------------------------|


E--------------------12-14br--------12--14--12----------|
B------13------15br-----------------------------15--13--|
G--12------12-------------------------------------------|
D-------------------------------------------------------|
A-------------------------------------------------------|
E-------------------------------------------------------|


E-------------------------------------------------------------------|
B--12------13--12---------------------------------------------------|
G------14----------14--12--11--14--12--------12br--11h-12p-11-------|
D----------------------------------------12-------------------14-12-|
A-------------------------------------------------------------------|
E-------------------------------------------------------------------|


E---------------------------------------------------------------|
B---------------------------------------------------------------|
G-------------------------------12--------------12------14br----|
D--10--12----10--12--10--9--12------12--12--14------12----------|
A---------------------------------------------------------------|
E---------------------------------------------------------------|


E--------------------------------------------------|
B--13--15------15--13-15-13-12-13------12----------|
G----------14----------------------14------14br----|
D--------------------------------------------------|
A--------------------------------------------------|
E--------------------------------------------------|


E----------------------------------------------------|
B----------------------------------------------------|
G--12--11--12--------------12------12----------------|
D--------------14--12--------------------------------|
A----------------------15------15------15--14--------|
E----------------------------------------------15----|


E--------------------------------|
B--------------------------------|
G------12--------12------14------|
D--12--------12------12------12--|
A--------------------------------|
E--------------------------------|


E--------------------------------------------------------------------------------
B-------------------------------------------------------------------13-------13--
G--14br--------12--14br--------14--------12--14-----------------12------15b------
D------------------------------------------------14----13h--14-------------------
A--------------------------------------------------------------------------------
E--------------------------------------------------------------------------------


E-----------------------------------------------------------------|
B------15---------------------------15----13--15--12--13------12--|
G--15------14b--14--12--14------12------------------------14------|
D---------------------------14------------------------------------|
A-----------------------------------------------------------------|
E-----------------------------------------------------------------|


E-----------------------------------------------------------------|
B-----------------------------------------------------------------|
G--12--14--11--12------11-----------12---------------12------14b--|
D------------------14------12s--10------10--9----12------12-------|
A-----------------------------------------------------------------|
E-----------------------------------------------------------------|


E----------------------------------------------------------|
B--------------------------12----13------------------------|
G--14br--14--12--14--14----------------12--11----12--14----|
D----------------------------------------------------------|
A----------------------------------------------------------|
E----------------------------------------------------------|


E--------------------------------------------------------------|
B----------------------------------------------------------12--|
G------12--14--12------------12--14------12--------12--14------|
D--14--------------14--12------------12--------12--------------|
A--------------------------------------------------------------|
E--------------------------------------------------------------|


E----------------------------------|
B--15--13------12------------------|
G----------14------------14br--14--|
D--------------------12------------|
A----------------------------------|
E----------------------------------|


E--------------------------------------------------------------------|
B----------------12--------13--------15br----15----12--15------------|
G--12------14----------12--------12------------------------14--14----|
D------12------------------------------------------------------------|
A--------------------------------------------------------------------|
E--------------------------------------------------------------------|


E--14br----14----12--------------------------------------------|
B--------------------15--13--12--13--12------------------------|
G----------------------------------------14--12--11--12--12----|
D--------------------------------------------------------------|
A--------------------------------------------------------------|
E--------------------------------------------------------------|


E--------------------------------------------------------------|
B----------------------------------------15--13----------------|
G--14b--------14------14------14b----------------14------------|
D-----------------12------12-------------------------16--------|
A--------------------------------------------------------------|
E--------------------------------------------------------------|


    NH     NH     NH     NH
E-->7----------------------------------------------------3--------||
B---------------->7-----------------------------3-----------------||
G--------->5----------->7-------------2--4--------4--------------||
D------------------------------------5--------5--------------------||
A---------------------------------5--------------------------------||
E------------------------------3-----------------------3-----------||




Tablature Legend
----------------
L - tied note
x - dead note
g - grace note
(n) - ghost note
> - accentuded note
NH - natural harmonic
AH - artificial harmonic
TH - tapped harmonic
SH - semi harmonic
PH - pitch harmonic
h - hammer on
p - pull off
b - bend
br - bendRelease
pb - preBend
pbr - preBendRelease
brb - bendReleaseBend
\n/ - tremolo bar dip
\n - tremolo bar dive
-/n - tremolo bar Release up
/n\ - tremolo bar inverted dip
/n - tremolo bar return
-\n - tremolo bar Release down
S - shift slide
s - legato slide
/ -  slide into from below or out of upwards
\ -  slide into from above or out of downwards
~ - vibrato
W - wide vibrato
tr - trill
TP - tremolo picking
T - tapping
S - slap
P - pop
 - fade in
^ - brush up
v - brush down


Johnny Hiland Tabs & Chords



Johnny Hiland Tabs, Tablatures, Chords, Lyrics

Buy Johnny Hiland CD
Johnny Hiland
Buy Johnny Hiland CD

  1. Johnny Hiland - G Wiz (complete) Tabs
  2. Johnny Hiland - Gatton To It Tabs
  3. Johnny Hiland - Orange Blossom Special(part 2) Tabs
  4. Johnny Hiland - Orange Blossom Special(part 3) Tabs
  5. Johnny Hiland - Tonal Emersion (lead Guitar) Tabs



cowboylyrics.com
All lyrics are property and copyright of their owners. All lyrics provided for educational purposes only.