Chris Thile, Bridal Veil Falls Tabs, Chords, Lyrics

Chris Thile, Bridal Veil Falls Tabs, Chords

 SITE MENU
 Request Tabs
 Add/Correct Tabs
 DMCA Policy
 Country Sheet Music
0

BROWSE LYRICS AND TABS BY ARTIST/BAND NAME: SEARCH HERE:
A B C D E F G H I J K L M N O P Q R S T U V W X Y Z #
 

Chris Thile - Bridal Veil Falls (Chords)


Chris Thile CD
Chris Thile Sheet music
Chris Thile Posters

 E|------------------------------------------------------||
 A|--5---------------------------------------------------||
 D|--0--------5-12-9-5----5---12--5/7/5---5--12-5/2-0----||
 G|------------------------------------------------------||




 E|---------------------------------------------------------------------||
A|--3/5--7-5----------9-5-5/7/9/10/9/7/5-------------------0-2-3-3/5---||
D|--0--------7/9-7-5---------------------9-7-5-9-7-9-7---5-------------||
G|--0------------------------------------------------------------------||

E|-----------------------------------------------------------------------||
A|----7-5----------9-5-5/7/9/10/9/7/5------------------------------------||
D|--------7/9-7-5---------------------10-9-8-5-4-5-4---1-2-4-6-7-9-11-9--||
G|-----------------------------------------------------------------------||

 E|------------------------------------------------------------------------||
A|-----------9-5-5/7/9/10/7/5---------------------------------------------||
D|--4/6/4/2-------------------7/9/7/5/9/7/9/7--3-6-7-7/9-11-9-4/6/4-2-----||
G|------------------------------------------------------------------------||

 E|------------------------------------------------------------------||
A|---------9-5-5/7/9/10/9/7/5--------------------0-2-3/5------------||
D|---------------------------10-9-8-5-4-4/5/4--5--------------------||
G|------------------------------------------------------------------||

 
 E|----------------------------------------------------------------1-3-1--||
A|----7-5----------9-5-5/7/9/10/9/7/5-----------------------1-3-5--------||
D|--------7/9-7-5---------------------9-7-5-9-7-9-7---4-5-7--------------||
G|-----------------------------------------------------------------------||

 E|-----------3---1------------||
 A|---3/5/3-1---5--------------||
 D|----------------------------||
 G|----------------------------||


 E|-0-1-2/3-2-0----------------||
 A|-------------5-3-2-0--------||
 D|---------------------5-2/4--||
 G|-------------------------0--||


Thile Chris Tabs & ChordsThile Chris Lyrics



Thile Chris Tabs, Tablatures, Chords, Lyrics

Buy Thile Chris CD
Thile Chris
Buy Thile Chris CD

  1. Thile Chris - Big Sam Thompson Chords
  2. Thile Chris - Bridal Veil Falls Chords
  3. Thile Chris - Club G.R.O.S.S. Chords
  4. Thile Chris - In The Arms Of The One Who Loves Me Chords
  5. Thile Chris - Jessamyn's Reel Chords
  6. Thile Chris - Laurie De' Tullins Chords
  7. Thile Chris - On Ice Chords
  8. Thile Chris - On Ice (mandolin Into Outro) Tabs
  9. Thile Chris - On Ice (outtro) Tabs
  10. Thile Chris - Raining At Sunset Chords
  11. Thile Chris - Ready For Anything Chords
  12. Thile Chris - Sinai To Canaan - Part 1 Tabs
  13. Thile Chris - Slime Rock Tabs
  14. Thile Chris - Song For A Young Queen Chords
  15. Thile Chris - Waltz For Dewayne Pomeroy Tabs
  16. Thile Chris - Waltz For Dewayne Pomeroy (mandolin) Tabs
  17. Thile Chris - When Mandolins Dream Tabs
  18. Thile Chris - You Deserve Flowers Tabs
  19. Thile Chris - You're An Angel And I'm Gonna Cry Chords



cowboylyrics.com
All lyrics are property and copyright of their owners. All lyrics provided for educational purposes only.