, Ol' Brother Hubbard Tabs, Chords, Lyrics

, Ol' Brother Hubbard Tabs, Chords

 SITE MENU
 Request Tabs
 Add/Correct Tabs
 DMCA Policy
 Country Sheet Music
0

BROWSE LYRICS AND TABS BY ARTIST/BAND NAME: SEARCH HERE:
A B C D E F G H I J K L M N O P Q R S T U V W X Y Z #
 

- Ol' Brother Hubbard (Tabs)


CD
 Sheet music
Posters
Ol' Brother Hubbard
Tommy Emmanuel




                                                            
E||--------------------0--2--|--2h-3h-2--0--2-----0--2--0--|
B||-----------0-----2--------|--------------------3--3-----|
G||--1--2h-3-----------------|-----------------------------|
D||--2-----2-----0-----0-----|-----------------------------|
A||--------------------------|--4--------------3--------2--|
E||--------------------------|-----------------------------|


                                                                             
--9h-7--------------------|-----3----2-----------|-----------------------0--|
--8-----------------------|-----3----2-----------|-----------0--------4-----|
--------9--7-----9-----9--|-----3----2--------0/-|--1--2--3/-------6--------|
--------------9--8/-7--5/-|--6--2----1-----------|--------2-----------6-----|
--------------------------|-----3----2-----------|--------------------------|
--------------------------|----------------------|--0-----------0-----------|


                                                                           
-------------4---------|--------0/----7----0----|--4-------------4--5--7/-|
-------7/-8--4---------|--8--7--------9----0----|--5-------7--------------|
-------------5----5----|--6---------------------|--5----------------------|
------------------4----|-----------7-------0----|--0----4-----------------|
-----------------------|--0---------------------|-------------------------|
--0----------4---------|--------------0---------|-------------5-----------|


                                                                               
--------------------4-----|--7--9--0------------3--|-----5-----------------2--|
--------4--5-----7--5-----|--7-----0------------5--|-----------3-----5--------|
--------4--4--------4-----|--7-----6---------------|-----------4-----4-----4--|
--------4-----------6-----|--7-----7---------------|--------------------------|
-----6--------4--------7--|-------------0----7-----|--5-----5-----------------|
--4-----------------------|------------------------|--------------3-----3-----|


                                                                              
-----------2-------------|-----------------------0--|-------------4----------|
-----------0-------------|-----------0--------4-----|-------7--8--4----------|
-----3-----2----------0--|--1--2--3--------6--------|-------------5-----5----|
-------------------1-----|--------2-----------6-----|-------------------4----|
----------------2--------|--------------------------|--7-------6-------------|
--2-----2----------------|--0-----------0-----------|----------------4-------|


                                                                               
--------0/----7----0----|--4--3--4-----------5--7--|--------------------4-----|
--8/-7--------9----0----|--5--4--5--7-----7--------|--------4--5-----7--5-----|
--6-----------6----0----|--5--4--5-----------------|--------4--4--------------|
-----------7-------0----|--0-----4-----------------|-----------6--------------|
--0---------------------|--------------------------|-----6--------4--------7--|
--------------0---------|--------------5-----------|--4-----------------------|


                                                                                
--7----9----0----8/---|--7--------5--4h-------0--|--2h-3h-2h-0--2--0-----------|
--7---------0---------|--------------------------|--------------0--0-----------|
--7---------5---------|-----8/-5--------5/-4-----|--3-----------2--1-----------|
--7---------7---------|--------------------------|--------------------------2--|
------------0---------|--------------------------|--------------2-----2h-4-----|
----------------------|--------------------------|--2--------------0-----------|


                                                                             
-----------------------0--|-----------4------------|--------0/----7----0----|
-----------0--------4-----|-----7--8--4------------|--8h-7--------9----0----|
--1--2/-3--------6--------|-----------5-------5----|--6-----------6----0----|
--------2-----------6-----|-------------------4----|-----------7-------0----|
--------------------------|------------------------|--0---------------------|
--0-----------0-----------|--0-----------4---------|--------------0---------|


                                                                               
--4-----------4--5/---7~-|--------------------4-----|--7--9-----0----------3--|
--5-----7----------------|-----4-----5-----7--5-----|--7--------0----------5--|
--5----------------------|-----4-----4--------------|--7--------5-------------|
--0--4-------------------|-----4--4--6--------6-----|--7--------7-------------|
-------------------------|--------------4--------7--|--------0-----0----0-----|
-----------5-------------|--4-----------------------|-------------------------|


                                                                                
-----5-----------------2--|-----------2-------------|-----------------------0--|
-----------3-----5--------|-------------------------|-----------0--------4-----|
-----------4-----------4--|-----3-----2----------0--|--1--2/-3--------6--------|
--------------------------|-------------------------|--------2-----------6-----|
--5-----5-----------------|--------------2----2-----|--------------------------|
--------------3-----3-----|--2-----2----------------|--0-----------0-----------|


                                                                             
-----------4------------|--------0-----7----0----|--4/-0-----------4--5-----|
-----7/-8--4------------|--8h-7--------9----0----|--5--------7--------------|
-----------5-------5----|--6-----6-----6---------|--5-----------------------|
-------------------4----|-----------7-------0----|--0-----4-----------------|
------------------------|--0---------------------|--------------------------|
--0-----------4---------|--------------0---------|--------------5--------4--|


                                                                                
--7-----------------4-----|--7--9-----0----------8h-|--7--------5h-4--------0--|
--------4-----5--7--5-----|--7--------0-------------|--------------------------|
--------4-----4-----------|--7--------5-------------|-----8--5--------5h-4-----|
--------4-----6-----------|--7--------7-------------|--------------------------|
-----6-----4-----------7--|--------0-------0--0-----|--------------------------|
--------------------------|-------------------------|--------------------------|


                                                                                
--3----2----0-------------|-----2h-0-----2--0-----2h-|--0--------------0--3~---|
------------0-------------|-----4--------4--2-----4--|--------2-----4-----3~---|
--3----2----1-------------|-----4--------4--4-----4--|--------4-----4-----4~---|
--------------------------|-----5--------5--------5--|--------5-----5----------|
-------2------------------|--0-----------------0-----|-------------------------|
--2---------0----0--2--4--|-----------0--------------|-----0-----3-------------|


                                                                           
-------2----0----------|-----0-----------------|-----2--0-----2--0-----2--|
-------2----0----2--0--|--0--------------------|-----4--------4--2-----4--|
-------2----1----2--0--|--1--------------------|-----4--------4--4-----4--|
-----------------2--0--|--2--------------------|-----5--------5--------5--|
-----------------0-----|-----------------------|--0-----------------0-----|
--0----2----0----------|--0-----2----3----4----|-----------0--------------|


                                                                        
--0--------7----5-----3--|-------5--7----5--3----|--7--------7----7----|
--------4--4----------3


Tommy Emmanuel Tabs & Chords



Tommy Emmanuel Tabs, Tablatures, Chords, Lyrics

Buy Tommy Emmanuel CD
Tommy Emmanuel
Buy Tommy Emmanuel CD

  1. Tommy Emmanuel - Briskie Tabs
  2. Tommy Emmanuel - Drivetime Tabs
  3. Tommy Emmanuel - I Have Always Thought Of You Tabs
  4. Tommy Emmanuel - Ol' Brother Hubbard Tabs
  5. Tommy Emmanuel - Stay Close To Me Tabs



cowboylyrics.com
All lyrics are property and copyright of their owners. All lyrics provided for educational purposes only.