Don't Feed The Animals chords - Shooter Jennings

Shooter Jennings Lyrics


            Tuning: Standard tuning, with some sweet, sweet fuzz

hit the open E marked (0) and push down on the string behind the nut

e|--------|
B|--------|
G|--------|
D|--------|
A|--------|
E|--(0)---|

e|------------------------------------------|
B|------------------------------------------|
G|------------------------------------------|
D|---11-11-9h11-11-11-9h11------------------|
A|---11-11-9h11-11-11-9h11--7-9-11-9-7------|
E|---9--9--9----9--9--9----------------9-7--|

e|---------------------------------|
B|---------------------------------|
G|---------------------------------|
D|---11-11-9h11-11-11-9h11---------|
A|---11-11-9h11-11-11-9h11---------|
E|---9--9--9----9--9--9------(0)---|