Clinch Mountain Backstep (mandolin Tab) tabs - Ralph Stanley

Ralph Stanley Lyrics


            
E-5-3-0-3-----------0-5-3-0-------------0-5-3-0-3----
A---------5-5-3-3-0---------5-5s7-7-7-7--------------
D----------------------------------------------------
G----------------------------------------------------

-----------------------------------------------------
-5-5-3-3-0-0-0-5-3-0--------------------------0-5-3--
---------------------5-5s7-7-7-7--5-5s7-7-7-7--------
-----------------------------------------------------

------------------------------5-3-0-3----------------
-0------------0-3-5-5s7-7-7-7---------5-5-3-3-0-0-0--
---5-5s7-7-7-7---------------------------------------
-----------------------------------------------------


-----------------------------------------------------
-5-3-0-----------------------------------------------
-------5-5s7-7-7-7-----------------------------------
-----------------------------------------------------