Love Train chords - Big & Rich

Big & Rich Lyrics


            E-----------------------------------------------------------
B-----------------------------------------------------------
G-------------------------------------------3--4--5--5------
D------------------------------3--4--5--5-------------------
A------------------3--4--5--5-------------------------------
E---0--3--4--5--5-------------------------------------------
                                            Play 4x


A      G            D
I see people gettin mad on CNN

E-----------------------------------------------------------
B---7s5--5s4--4s2--0h2--------------------------------------
G-----------------------------------------------------------
D-----------------------------------------------------------
A-----------------------------------------------------------
E-----------------------------------------------------------

A      G            D             A    G    D
Who's right democrats or republicans
A       G           D         A
I don't care who's right or wrong 
A        G          D         A
I know a way we can all get along
Chorus: A A D G Let's take a ri-----de A D G A Let's take a ride on the love train A D G A D G Unw----ind, we'll be chugga luggin all the way A D G A D G Let's ro----ll, like the stones playin all day hey A D G Let's take a ri--de (no chord) A Let's take a ride on the love train (repeat intro) The whole color thing's never made sense to me E----------------------------------------------------------- B---7s5--5s4--4s2--0h2-------------------------------------- G----------------------------------------------------------- D----------------------------------------------------------- A----------------------------------------------------------- E----------------------------------------------------------- Who gives a hoot if your red, yellow, purple, or pink We're all mixed up anyway (anyway) We might as well give each other a break (repeat chorus) A G D (Muted) A G So let's forget about the hatin' D A and the way the bulls are playin' A G D A without Jordan on the team and the high price of gasoline A G and if your livin' in a bubble D A then i guess you got no troubles A G But if your anything like me D A Well then i bet you really need it (repeat chorus) A D G Let's take a ride on the love train A D G let's take a ride on the love train