I Know A Little (intro) chords - Sammy Kershaw

Sammy Kershaw Lyrics




Intro


E---------5-5--------5-----------5-5--------5------------5-5--------5--------------5-5-------5---
B------5-7--------5-7---------5-7--------5-7----------5-7--------5-7-----------5-7--------5-7----
G--5h6-------5h6----------5h6-------5h6-----------5h6-------5h6------------5h6-------5h6---------
D------------------------------------------------------------------------------------------------
A------------------------------------------------------------------------------------------------
E------------------------------------------------------------------------------------------------

    
                  h    p         
E---------7-7--------5-5---12p0-----10-8---------------------5----------------
B---7h8h9------5h6h7-------------12------10p8--10-10---7p6p5---8^-5-----------
G------------------------------11-------------9--------------------7-5-5------
D---------------------------------------------------------------------7-------
A-----------------------------------------------------------------------------
E----------------------------------------------------------------------------


   
Intro


E---------5-5--------5-----------5-5--------5------------5-5--------5--------------5-5-------5---
B------5-7--------5-7---------5-7--------5-7----------5-7--------5-7-----------5-7--------5-7----
G--5h6-------5h6----------5h6-------5h6-----------5h6-------5h6------------5h6-------5h6---------
D------------------------------------------------------------------------------------------------
A------------------------------------------------------------------------------------------------
E------------------------------------------------------------------------------------------------
    
                  h    p         
E---------7-7--------5-5---12p0-----10-8---------------------5----------------
B---7h8h9------5h6h7-------------12------10p8--10-10---7p6p5---8^-5-----------
G------------------------------11-------------9--------------------7-5-5------
D---------------------------------------------------------------------7-------
A-----------------------------------------------------------------------------
E----------------------------------------------------------------------------