Ten Second News chords - Volt Son

Volt Son Lyrics




   Em          G           F
|--0-----0-----3-----3-----1-------1-------1--1--------|
|--0-----0-----3-----3-----1---h---1---h---1--1--------|
|--0-----0-----4-----4-----2--0-2--2--0-2--2--2--------| REPEAT ONCE
|--2-----2-----5-----5-----3-------3-------3--3--------|
|--2-----2-----5-----5-----3-------3-------3--3--------|
|--0-----0-----3-----3-----1-------1-------1--1--------|

Em  F  D  Am7  C  D  Dsus  D


         D                             Am7
When you find what matters ...
   C              D
It arrives ...
        D          Am7
Drivin' down ...
                                C                 D
There's a beach there known for ...
            D                     Am7
When you're out across the ...
         C                                D
The news travels slower than ...


Em         G           F
  But only ...
Em          G        F
  As day by ...
Em     F           D     Am7  C  D
  Only ...


And it's hard enough soakin' up ....

Em         G           F
  But only you'll ever ...
Em          G        F
  As day by day ...
Em     F           G                      F
  Only you'll ever know, ...,
Em          G        F
  As day by ...
Em     F        D     Am7  C  D
  Only you ...

D  Am7  C  D

   
   Em          G           F
|--0-----0-----3-----3-----1-------1-------1--1--------|
|--0-----0-----3-----3-----1---h---1---h---1--1--------|
|--0-----0-----4-----4-----2--0-2--2--0-2--2--2--------| REPEAT ONCE
|--2-----2-----5-----5-----3-------3-------3--3--------|
|--2-----2-----5-----5-----3-------3-------3--3--------|
|--0-----0-----3-----3-----1-------1-------1--1--------|

Em  F  D  Am7  C  D  Dsus  D

         D                             Am7
When you find what matters ...
   C              D
It arrives ...
        D          Am7
Drivin' down ...
                                C                 D
There's a beach there known for ...
            D                     Am7
When you're out across the ...
         C                                D
The news travels slower than ...


Em         G           F
  But only ...
Em          G        F
  As day by ...
Em     F           D     Am7  C  D
  Only ...


And it's hard enough soakin' up ....

Em         G           F
  But only you'll ever ...
Em          G        F
  As day by day ...
Em     F           G                      F
  Only you'll ever know, ...,
Em          G        F
  As day by ...
Em     F        D     Am7  C  D
  Only you ...

D  Am7  C  D