Rock And Roll chords - Sons of Bill Chords

Rock And Roll chords

Swap ↔ or rotate ↻ the device
            Intro: 

------------------------------------
------------------------------------
-------------------2----------------
-------------------2----------------
-------------------0----------------
0-3(b)-0-0(h)3(h)0------------------

E
Well soundcheck's at 12 and I'm hungover as hell 
             A  
And you been ridin that freight train through my mind all day
E
It's 30 minutes to showtime wonderin if you're standin in that line 
          A
out there thinkin about me like I been thinkin of you
B                                           A
And it's just another verse of the same damn song about lovesick hungover hillbilly blues

Pre-chorus riff:

------------------------------------
------------------------------------
------------------------------------
------------------------------------ ------------------------------------ 00-22-33-44------------------------- A E And it's lonely, you don't understand the pain of life in a hillbilly band B with a worn out song where your heart used to be A E And you're the only girl I know that could think that love could save my soul B A But country songs don't end that way and I don't play rock n roll She only likes the songs I sing When I sing them up on stage And she pretends that I'm not the guy she used to know And as soon as it's time to leave She looks up on stage to see If I'm watchin as she leaves the bar with someone new Well this song's all about you anyway, so just go on girl I feel another one comin on


Sons of Bill Chords & Tabs List